  0
SECTION
  2
HEADER
  9
$ACADVER
  1
AC1015
  9
$ACADMAINTVER
 70
    18
  9
$DWGCODEPAGE
  3
ANSI_1252
  9
$INSBASE
 10
0.0
 20
0.0
 30
0.0
  9
$EXTMIN
 10
1.000000000000000E+20
 20
1.000000000000000E+20
 30
1.000000000000000E+20
  9
$EXTMAX
 10
-1.000000000000000E+20
 20
-1.000000000000000E+20
 30
-1.000000000000000E+20
  9
$LIMMIN
 10
0.0
 20
0.0
  9
$LIMMAX
 10
12.0
 20
9.0
  9
$ORTHOMODE
 70
     0
  9
$REGENMODE
 70
     1
  9
$FILLMODE
 70
     1
  9
$QTEXTMODE
 70
     0
  9
$MIRRTEXT
 70
     0
  9
$LTSCALE
 40
1.0
  9
$ATTMODE
 70
     1
  9
$TEXTSIZE
 40
0.2
  9
$TRACEWID
 40
0.05
  9
$TEXTSTYLE
  7
Standard
  9
$CLAYER
  8
0
  9
$CELTYPE
  6
ByLayer
  9
$CECOLOR
 62
   256
  9
$CELTSCALE
 40
1.0
  9
$DISPSILH
 70
     0
  9
$DIMSCALE
 40
1.0
  9
$DIMASZ
 40
0.18
  9
$DIMEXO
 40
0.0625
  9
$DIMDLI
 40
0.38
  9
$DIMRND
 40
0.0
  9
$DIMDLE
 40
0.0
  9
$DIMEXE
 40
0.18
  9
$DIMTP
 40
0.0
  9
$DIMTM
 40
0.0
  9
$DIMTXT
 40
0.18
  9
$DIMCEN
 40
0.09
  9
$DIMTSZ
 40
0.0
  9
$DIMTOL
 70
     0
  9
$DIMLIM
 70
     0
  9
$DIMTIH
 70
     1
  9
$DIMTOH
 70
     1
  9
$DIMSE1
 70
     0
  9
$DIMSE2
 70
     0
  9
$DIMTAD
 70
     0
  9
$DIMZIN
 70
     0
  9
$DIMBLK
  1

  9
$DIMASO
 70
     1
  9
$DIMSHO
 70
     1
  9
$DIMPOST
  1

  9
$DIMAPOST
  1

  9
$DIMALT
 70
     0
  9
$DIMALTD
 70
     2
  9
$DIMALTF
 40
25.4
  9
$DIMLFAC
 40
1.0
  9
$DIMTOFL
 70
     0
  9
$DIMTVP
 40
0.0
  9
$DIMTIX
 70
     0
  9
$DIMSOXD
 70
     0
  9
$DIMSAH
 70
     0
  9
$DIMBLK1
  1

  9
$DIMBLK2
  1

  9
$DIMSTYLE
  2
Standard
  9
$DIMCLRD
 70
     0
  9
$DIMCLRE
 70
     0
  9
$DIMCLRT
 70
     0
  9
$DIMTFAC
 40
1.0
  9
$DIMGAP
 40
0.09
  9
$DIMJUST
 70
     0
  9
$DIMSD1
 70
     0
  9
$DIMSD2
 70
     0
  9
$DIMTOLJ
 70
     1
  9
$DIMTZIN
 70
     0
  9
$DIMALTZ
 70
     0
  9
$DIMALTTZ
 70
     0
  9
$DIMUPT
 70
     0
  9
$DIMDEC
 70
     4
  9
$DIMTDEC
 70
     4
  9
$DIMALTU
 70
     2
  9
$DIMALTTD
 70
     2
  9
$DIMTXSTY
  7
Standard
  9
$DIMAUNIT
 70
     0
  9
$DIMADEC
 70
     0
  9
$DIMALTRND
 40
0.0
  9
$DIMAZIN
 70
     0
  9
$DIMDSEP
 70
    46
  9
$DIMATFIT
 70
     3
  9
$DIMFRAC
 70
     0
  9
$DIMLDRBLK
  1

  9
$DIMLUNIT
 70
     2
  9
$DIMLWD
 70
    -2
  9
$DIMLWE
 70
    -2
  9
$DIMTMOVE
 70
     0
  9
$LUNITS
 70
     2
  9
$LUPREC
 70
     4
  9
$SKETCHINC
 40
0.1
  9
$FILLETRAD
 40
0.0
  9
$AUNITS
 70
     0
  9
$AUPREC
 70
     0
  9
$MENU
  1
.
  9
$ELEVATION
 40
0.0
  9
$PELEVATION
 40
0.0
  9
$THICKNESS
 40
0.0
  9
$LIMCHECK
 70
     0
  9
$CHAMFERA
 40
0.0
  9
$CHAMFERB
 40
0.0
  9
$CHAMFERC
 40
0.0
  9
$CHAMFERD
 40
0.0
  9
$SKPOLY
 70
     0
  9
$TDCREATE
 40
2459935.389837963
  9
$TDUCREATE
 40
2459935.348171296
  9
$TDUPDATE
 40
2459935.389837963
  9
$TDUUPDATE
 40
2459935.348171296
  9
$TDINDWG
 40
0.0000000000
  9
$TDUSRTIMER
 40
0.0000000000
  9
$USRTIMER
 70
     1
  9
$ANGBASE
 50
0.0
  9
$ANGDIR
 70
     0
  9
$PDMODE
 70
     0
  9
$PDSIZE
 40
0.0
  9
$PLINEWID
 40
0.0
  9
$SPLFRAME
 70
     0
  9
$SPLINETYPE
 70
     6
  9
$SPLINESEGS
 70
     8
  9
$HANDSEED
  5
1D5
  9
$SURFTAB1
 70
     6
  9
$SURFTAB2
 70
     6
  9
$SURFTYPE
 70
     6
  9
$SURFU
 70
     6
  9
$SURFV
 70
     6
  9
$UCSBASE
  2

  9
$UCSNAME
  2

  9
$UCSORG
 10
0.0
 20
0.0
 30
0.0
  9
$UCSXDIR
 10
1.0
 20
0.0
 30
0.0
  9
$UCSYDIR
 10
0.0
 20
1.0
 30
0.0
  9
$UCSORTHOREF
  2

  9
$UCSORTHOVIEW
 70
     0
  9
$UCSORGTOP
 10
0.0
 20
0.0
 30
0.0
  9
$UCSORGBOTTOM
 10
0.0
 20
0.0
 30
0.0
  9
$UCSORGLEFT
 10
0.0
 20
0.0
 30
0.0
  9
$UCSORGRIGHT
 10
0.0
 20
0.0
 30
0.0
  9
$UCSORGFRONT
 10
0.0
 20
0.0
 30
0.0
  9
$UCSORGBACK
 10
0.0
 20
0.0
 30
0.0
  9
$PUCSBASE
  2

  9
$PUCSNAME
  2

  9
$PUCSORG
 10
0.0
 20
0.0
 30
0.0
  9
$PUCSXDIR
 10
1.0
 20
0.0
 30
0.0
  9
$PUCSYDIR
 10
0.0
 20
1.0
 30
0.0
  9
$PUCSORTHOREF
  2

  9
$PUCSORTHOVIEW
 70
     0
  9
$PUCSORGTOP
 10
0.0
 20
0.0
 30
0.0
  9
$PUCSORGBOTTOM
 10
0.0
 20
0.0
 30
0.0
  9
$PUCSORGLEFT
 10
0.0
 20
0.0
 30
0.0
  9
$PUCSORGRIGHT
 10
0.0
 20
0.0
 30
0.0
  9
$PUCSORGFRONT
 10
0.0
 20
0.0
 30
0.0
  9
$PUCSORGBACK
 10
0.0
 20
0.0
 30
0.0
  9
$USERI1
 70
     0
  9
$USERI2
 70
     0
  9
$USERI3
 70
     0
  9
$USERI4
 70
     0
  9
$USERI5
 70
     0
  9
$USERR1
 40
0.0
  9
$USERR2
 40
0.0
  9
$USERR3
 40
0.0
  9
$USERR4
 40
0.0
  9
$USERR5
 40
0.0
  9
$WORLDVIEW
 70
     1
  9
$SHADEDGE
 70
     3
  9
$SHADEDIF
 70
    70
  9
$TILEMODE
 70
     1
  9
$MAXACTVP
 70
    64
  9
$PINSBASE
 10
0.0
 20
0.0
 30
0.0
  9
$PLIMCHECK
 70
     0
  9
$PEXTMIN
 10
1.000000000000000E+20
 20
1.000000000000000E+20
 30
1.000000000000000E+20
  9
$PEXTMAX
 10
-1.000000000000000E+20
 20
-1.000000000000000E+20
 30
-1.000000000000000E+20
  9
$PLIMMIN
 10
0.0
 20
0.0
  9
$PLIMMAX
 10
12.0
 20
9.0
  9
$UNITMODE
 70
     0
  9
$VISRETAIN
 70
     1
  9
$PLINEGEN
 70
     0
  9
$PSLTSCALE
 70
     1
  9
$TREEDEPTH
 70
  3020
  9
$CMLSTYLE
  2
Standard
  9
$CMLJUST
 70
     0
  9
$CMLSCALE
 40
1.0
  9
$PROXYGRAPHICS
 70
     1
  9
$MEASUREMENT
 70
     0
  9
$CELWEIGHT
370
    -1
  9
$ENDCAPS
280
     0
  9
$JOINSTYLE
280
     0
  9
$LWDISPLAY
290
     1
  9
$INSUNITS
 70
     0
  9
$HYPERLINKBASE
  1

  9
$STYLESHEET
  1

  9
$XEDIT
290
     1
  9
$CEPSNTYPE
380
     0
  9
$PSTYLEMODE
290
     1
  9
$FINGERPRINTGUID
  2
{FD268153-DB91-0D40-BB94-3A27B194FAB4}
  9
$VERSIONGUID
  2
{D6DF0473-8B5F-C640-908A-EA24076203ED}
  9
$EXTNAMES
290
     1
  9
$PSVPSCALE
 40
0.0
  9
$OLESTARTUP
290
     0
  0
ENDSEC
  0
SECTION
  2
CLASSES
  0
CLASS
  1
ACDBDICTIONARYWDFLT
  2
AcDbDictionaryWithDefault
  3
ObjectDBX Classes
 90
        0
280
     0
281
     0
  0
CLASS
  1
MATERIAL
  2
AcDbMaterial
  3
ObjectDBX Classes
 90
     1153
280
     0
281
     0
  0
CLASS
  1
VISUALSTYLE
  2
AcDbVisualStyle
  3
ObjectDBX Classes
 90
     4095
280
     0
281
     0
  0
CLASS
  1
SCALE
  2
AcDbScale
  3
ObjectDBX Classes
 90
     1153
280
     0
281
     0
  0
CLASS
  1
TABLESTYLE
  2
AcDbTableStyle
  3
ObjectDBX Classes
 90
     4095
280
     0
281
     0
  0
CLASS
  1
MLEADERSTYLE
  2
AcDbMLeaderStyle
  3
ACDB_MLEADERSTYLE_CLASS
 90
     4095
280
     0
281
     0
  0
CLASS
  1
ACDBSECTIONVIEWSTYLE
  2
AcDbSectionViewStyle
  3
ObjectDBX Classes
 90
     1025
280
     0
281
     0
  0
CLASS
  1
ACDBDETAILVIEWSTYLE
  2
AcDbDetailViewStyle
  3
ObjectDBX Classes
 90
     1025
280
     0
281
     0
  0
CLASS
  1
DICTIONARYVAR
  2
AcDbDictionaryVar
  3
ObjectDBX Classes
 90
        0
280
     0
281
     0
  0
CLASS
  1
CELLSTYLEMAP
  2
AcDbCellStyleMap
  3
ObjectDBX Classes
 90
     1152
280
     0
281
     0
  0
CLASS
  1
ACDBPLACEHOLDER
  2
AcDbPlaceHolder
  3
ObjectDBX Classes
 90
        0
280
     0
281
     0
  0
CLASS
  1
LAYOUT
  2
AcDbLayout
  3
ObjectDBX Classes
 90
        0
280
     0
281
     0
  0
ENDSEC
  0
SECTION
  2
TABLES
  0
TABLE
  2
VPORT
  5
8
330
0
100
AcDbSymbolTable
 70
     1
  0
VPORT
  5
57
330
8
100
AcDbSymbolTableRecord
100
AcDbViewportTableRecord
  2
*Active
 70
     0
 10
0.0
 20
0.0
 11
1.0
 21
1.0
 12
0.0
 22
0.0
 13
0.0
 23
0.0
 14
1.0
 24
1.0
 15
0.0
 25
0.0
 16
0.0
 26
0.0
 36
1.0
 17
500.0
 27
-450.0
 37
0.0
 40
918.0
 41
1.111111111111111
 42
50.0
 43
0.0
 44
0.0
 50
0.0
 51
0.0
 71
     0
 72
   100
 73
     1
 74
     0
 75
     1
 76
     0
 77
     0
 78
     0
281
     0
 65
     1
110
0.0
120
0.0
130
0.0
111
1.0
121
0.0
131
0.0
112
0.0
122
1.0
132
0.0
 79
     0
146
0.0
  0
ENDTAB
  0
TABLE
  2
LTYPE
  5
5
330
0
100
AcDbSymbolTable
 70
     1
  0
LTYPE
  5
5B
330
5
100
AcDbSymbolTableRecord
100
AcDbLinetypeTableRecord
  2
ByBlock
 70
     0
  3

 72
    65
 73
     0
 40
0.0
  0
LTYPE
  5
5C
330
5
100
AcDbSymbolTableRecord
100
AcDbLinetypeTableRecord
  2
ByLayer
 70
     0
  3

 72
    65
 73
     0
 40
0.0
  0
LTYPE
  5
5D
330
5
100
AcDbSymbolTableRecord
100
AcDbLinetypeTableRecord
  2
Continuous
 70
     0
  3
Solid line
 72
    65
 73
     0
 40
0.0
  0
ENDTAB
  0
TABLE
  2
LAYER
  5
2
330
0
100
AcDbSymbolTable
 70
     2
  0
LAYER
  5
54
330
2
100
AcDbSymbolTableRecord
100
AcDbLayerTableRecord
  2
0
 70
     0
 62
     7
  6
Continuous
370
    -3
390
F
  0
LAYER
  5
78
330
2
100
AcDbSymbolTableRecord
100
AcDbLayerTableRecord
  2
Livello 1
 70
     0
 62
     7
  6
Continuous
370
     0
390
F
  0
ENDTAB
  0
TABLE
  2
STYLE
  5
3
330
0
100
AcDbSymbolTable
 70
     2
  0
STYLE
  5
55
330
3
100
AcDbSymbolTableRecord
100
AcDbTextStyleTableRecord
  2
Standard
 70
     0
 40
0.0
 41
1.0
 50
0.0
 71
     0
 42
0.2
  3
txt
  4

  0
STYLE
  5
5A
330
3
100
AcDbSymbolTableRecord
100
AcDbTextStyleTableRecord
  2
Annotative
 70
     0
 40
0.0
 41
1.0
 50
0.0
 71
     0
 42
0.2
  3
txt
  4

1001
AcadAnnotative
1000
AnnotativeData
1002
{
1070
     1
1070
     1
1002
}
  0
ENDTAB
  0
TABLE
  2
VIEW
  5
6
330
0
100
AcDbSymbolTable
 70
     0
  0
ENDTAB
  0
TABLE
  2
UCS
  5
7
330
0
100
AcDbSymbolTable
 70
     0
  0
ENDTAB
  0
TABLE
  2
APPID
  5
9
330
0
100
AcDbSymbolTable
 70
     3
  0
APPID
  5
56
330
9
100
AcDbSymbolTableRecord
100
AcDbRegAppTableRecord
  2
ACAD
 70
     0
  0
APPID
  5
5E
330
9
100
AcDbSymbolTableRecord
100
AcDbRegAppTableRecord
  2
AcadAnnotative
 70
     0
  0
APPID
  5
1C8
330
9
100
AcDbSymbolTableRecord
100
AcDbRegAppTableRecord
  2
ACAD_MLEADERVER
 70
     0
  0
ENDTAB
  0
TABLE
  2
DIMSTYLE
  5
A
330
0
100
AcDbSymbolTable
 70
     2
100
AcDbDimStyleTable
 71
     0
  0
DIMSTYLE
105
58
330
A
100
AcDbSymbolTableRecord
100
AcDbDimStyleTableRecord
  2
Standard
 70
     0
340
55
  0
DIMSTYLE
105
59
330
A
100
AcDbSymbolTableRecord
100
AcDbDimStyleTableRecord
  2
Annotative
 70
     0
340
55
1001
AcadAnnotative
1000
AnnotativeData
1002
{
1070
     1
1070
     1
1002
}
  0
ENDTAB
  0
TABLE
  2
BLOCK_RECORD
  5
1
330
0
100
AcDbSymbolTable
 70
    32
  0
BLOCK_RECORD
  5
70
330
1
100
AcDbSymbolTableRecord
100
AcDbBlockTableRecord
  2
*Model_Space
340
73
  0
BLOCK_RECORD
  5
6C
330
1
100
AcDbSymbolTableRecord
100
AcDbBlockTableRecord
  2
*Paper_Space
340
6F
  0
BLOCK_RECORD
  5
74
330
1
100
AcDbSymbolTableRecord
100
AcDbBlockTableRecord
  2
*Paper_Space0
340
77
  0
BLOCK_RECORD
  5
79
330
1
100
AcDbSymbolTableRecord
100
AcDbBlockTableRecord
  2
Block_0
340
0
102
{BLKREFS
331
7A
102
}
  0
BLOCK_RECORD
  5
97
330
1
100
AcDbSymbolTableRecord
100
AcDbBlockTableRecord
  2
Block_1
340
0
102
{BLKREFS
331
98
102
}
  0
BLOCK_RECORD
  5
9B
330
1
100
AcDbSymbolTableRecord
100
AcDbBlockTableRecord
  2
Block_2
340
0
102
{BLKREFS
331
9C
102
}
  0
BLOCK_RECORD
  5
A4
330
1
100
AcDbSymbolTableRecord
100
AcDbBlockTableRecord
  2
Block_3
340
0
102
{BLKREFS
331
A5
102
}
  0
BLOCK_RECORD
  5
A8
330
1
100
AcDbSymbolTableRecord
100
AcDbBlockTableRecord
  2
Block_4
340
0
102
{BLKREFS
331
A9
102
}
  0
BLOCK_RECORD
  5
B3
330
1
100
AcDbSymbolTableRecord
100
AcDbBlockTableRecord
  2
Block_5
340
0
102
{BLKREFS
331
B4
102
}
  0
BLOCK_RECORD
  5
B7
330
1
100
AcDbSymbolTableRecord
100
AcDbBlockTableRecord
  2
Block_6
340
0
102
{BLKREFS
331
B8
102
}
  0
BLOCK_RECORD
  5
C0
330
1
100
AcDbSymbolTableRecord
100
AcDbBlockTableRecord
  2
Block_7
340
0
102
{BLKREFS
331
C1
102
}
  0
BLOCK_RECORD
  5
C4
330
1
100
AcDbSymbolTableRecord
100
AcDbBlockTableRecord
  2
Block_8
340
0
102
{BLKREFS
331
C5
102
}
  0
BLOCK_RECORD
  5
CE
330
1
100
AcDbSymbolTableRecord
100
AcDbBlockTableRecord
  2
Block_9
340
0
102
{BLKREFS
331
CF
102
}
  0
BLOCK_RECORD
  5
D2
330
1
100
AcDbSymbolTableRecord
100
AcDbBlockTableRecord
  2
Block_10
340
0
102
{BLKREFS
331
D3
102
}
  0
BLOCK_RECORD
  5
DB
330
1
100
AcDbSymbolTableRecord
100
AcDbBlockTableRecord
  2
Block_11
340
0
102
{BLKREFS
331
DC
102
}
  0
BLOCK_RECORD
  5
DF
330
1
100
AcDbSymbolTableRecord
100
AcDbBlockTableRecord
  2
Block_12
340
0
102
{BLKREFS
331
E0
102
}
  0
BLOCK_RECORD
  5
108
330
1
100
AcDbSymbolTableRecord
100
AcDbBlockTableRecord
  2
Block_13
340
0
102
{BLKREFS
331
109
102
}
  0
BLOCK_RECORD
  5
10C
330
1
100
AcDbSymbolTableRecord
100
AcDbBlockTableRecord
  2
Block_14
340
0
102
{BLKREFS
331
10D
102
}
  0
BLOCK_RECORD
  5
115
330
1
100
AcDbSymbolTableRecord
100
AcDbBlockTableRecord
  2
Block_15
340
0
102
{BLKREFS
331
116
102
}
  0
BLOCK_RECORD
  5
119
330
1
100
AcDbSymbolTableRecord
100
AcDbBlockTableRecord
  2
Block_16
340
0
102
{BLKREFS
331
11A
102
}
  0
BLOCK_RECORD
  5
122
330
1
100
AcDbSymbolTableRecord
100
AcDbBlockTableRecord
  2
Block_17
340
0
102
{BLKREFS
331
123
102
}
  0
BLOCK_RECORD
  5
126
330
1
100
AcDbSymbolTableRecord
100
AcDbBlockTableRecord
  2
Block_18
340
0
102
{BLKREFS
331
127
102
}
  0
BLOCK_RECORD
  5
12F
330
1
100
AcDbSymbolTableRecord
100
AcDbBlockTableRecord
  2
Block_19
340
0
102
{BLKREFS
331
130
102
}
  0
BLOCK_RECORD
  5
133
330
1
100
AcDbSymbolTableRecord
100
AcDbBlockTableRecord
  2
Block_20
340
0
102
{BLKREFS
331
134
102
}
  0
BLOCK_RECORD
  5
13E
330
1
100
AcDbSymbolTableRecord
100
AcDbBlockTableRecord
  2
Block_21
340
0
102
{BLKREFS
331
13F
102
}
  0
BLOCK_RECORD
  5
142
330
1
100
AcDbSymbolTableRecord
100
AcDbBlockTableRecord
  2
Block_22
340
0
102
{BLKREFS
331
143
102
}
  0
BLOCK_RECORD
  5
14A
330
1
100
AcDbSymbolTableRecord
100
AcDbBlockTableRecord
  2
Block_23
340
0
102
{BLKREFS
331
14B
102
}
  0
BLOCK_RECORD
  5
14E
330
1
100
AcDbSymbolTableRecord
100
AcDbBlockTableRecord
  2
Block_24
340
0
102
{BLKREFS
331
14F
102
}
  0
BLOCK_RECORD
  5
15E
330
1
100
AcDbSymbolTableRecord
100
AcDbBlockTableRecord
  2
Block_25
340
0
102
{BLKREFS
331
15F
102
}
  0
BLOCK_RECORD
  5
163
330
1
100
AcDbSymbolTableRecord
100
AcDbBlockTableRecord
  2
Block_26
340
0
102
{BLKREFS
331
164
102
}
  0
BLOCK_RECORD
  5
167
330
1
100
AcDbSymbolTableRecord
100
AcDbBlockTableRecord
  2
Block_27
340
0
102
{BLKREFS
331
168
102
}
  0
BLOCK_RECORD
  5
170
330
1
100
AcDbSymbolTableRecord
100
AcDbBlockTableRecord
  2
Block_28
340
0
102
{BLKREFS
331
171
102
}
  0
BLOCK_RECORD
  5
175
330
1
100
AcDbSymbolTableRecord
100
AcDbBlockTableRecord
  2
Block_29
340
0
102
{BLKREFS
331
176
102
}
  0
BLOCK_RECORD
  5
179
330
1
100
AcDbSymbolTableRecord
100
AcDbBlockTableRecord
  2
Block_30
340
0
102
{BLKREFS
331
17A
102
}
  0
ENDTAB
  0
ENDSEC
  0
SECTION
  2
BLOCKS
  0
BLOCK
  5
71
330
70
100
AcDbEntity
  8
0
100
AcDbBlockBegin
  2
*Model_Space
 70
     0
 10
0.0
 20
0.0
 30
0.0
  3
*Model_Space
  1

  0
ENDBLK
  5
72
330
70
100
AcDbEntity
  8
0
100
AcDbBlockEnd
  0
BLOCK
  5
6D
330
6C
100
AcDbEntity
 67
     1
  8
0
100
AcDbBlockBegin
  2
*Paper_Space
 70
     0
 10
0.0
 20
0.0
 30
0.0
  3
*Paper_Space
  1

  0
ENDBLK
  5
6E
330
6C
100
AcDbEntity
 67
     1
  8
0
100
AcDbBlockEnd
  0
BLOCK
  5
75
330
74
100
AcDbEntity
 67
     1
  8
0
100
AcDbBlockBegin
  2
*Paper_Space0
 70
     0
 10
0.0
 20
0.0
 30
0.0
  3
*Paper_Space0
  1

  0
ENDBLK
  5
76
330
74
100
AcDbEntity
 67
     1
  8
0
100
AcDbBlockEnd
  0
BLOCK
  5
7B
330
79
100
AcDbEntity
  8
0
100
AcDbBlockBegin
  2
Block_0
 70
     0
 10
0.0
 20
0.0
 30
0.0
  3
Block_0
  1

  0
LWPOLYLINE
  5
7D
330
79
100
AcDbEntity
  8
Livello 1
 62
   250
370
    60
100
AcDbPolyline
 90
        4
 70
     1
 43
0.0
 10
841.8655047043484
 20
-533.7644670125664
 10
651.357610543495
 20
-533.7644670125664
 10
651.357610543495
 20
-330.6883437230381
 10
841.8655047043484
 20
-330.6883437230381
  0
LINE
  5
7E
330
79
100
AcDbEntity
  8
Livello 1
 62
   250
370
    30
100
AcDbLine
 10
651.357610543495
 20
-364.6016501328959
 30
0.0
 11
841.8655047043484
 21
-364.6016501328959
 31
0.0
  0
LINE
  5
7F
330
79
100
AcDbEntity
  8
Livello 1
 62
   250
370
    30
100
AcDbLine
 10
651.357610543495
 20
-498.5298598849058
 30
0.0
 11
841.8655047043484
 21
-498.5298598849058
 31
0.0
  0
CIRCLE
  5
80
330
79
100
AcDbEntity
  8
Livello 1
 62
   250
370
    30
100
AcDbCircle
 10
663.0829244703322
 20
-516.1678915807133
 30
0.0
 40
6.055363587523743
  0
CIRCLE
  5
81
330
79
100
AcDbEntity
  8
Livello 1
 62
   250
370
    30
100
AcDbCircle
 10
678.3064157879739
 20
-516.1678915807151
 30
0.0
 40
6.055363587507827
  0
CIRCLE
  5
82
330
79
100
AcDbEntity
  8
Livello 1
 62
   250
370
    30
100
AcDbCircle
 10
663.0829244703322
 20
-346.5616568599371
 30
0.0
 40
6.055363587524652
  0
CIRCLE
  5
83
330
79
100
AcDbEntity
  8
Livello 1
 62
   250
370
    30
100
AcDbCircle
 10
678.3064157879739
 20
-346.5616568599371
 30
0.0
 40
6.055363587508736
  0
CIRCLE
  5
84
330
79
100
AcDbEntity
  8
Livello 1
 62
   250
370
    30
100
AcDbCircle
 10
783.540528967248
 20
-346.5616568599371
 30
0.0
 40
6.05536358751442
  0
CIRCLE
  5
85
330
79
100
AcDbEntity
  8
Livello 1
 62
   250
370
    30
100
AcDbCircle
 10
828.9849419024271
 20
-346.5616568599371
 30
0.0
 40
6.055363587517376
  0
CIRCLE
  5
86
330
79
100
AcDbEntity
  8
Livello 1
 62
   250
370
    30
100
AcDbCircle
 10
693.5299065510939
 20
-516.1678915807169
 30
0.0
 40
6.055363587516467
  0
CIRCLE
  5
87
330
79
100
AcDbEntity
  8
Livello 1
 62
   250
370
    30
100
AcDbCircle
 10
708.7533973142194
 20
-516.1678915807151
 30
0.0
 40
6.055363587521469
  0
CIRCLE
  5
88
330
79
100
AcDbEntity
  8
Livello 1
 62
   250
370
    30
100
AcDbCircle
 10
723.9768880773417
 20
-516.1678915807151
 30
0.0
 40
6.055363587518968
  0
CIRCLE
  5
89
330
79
100
AcDbEntity
  8
Livello 1
 62
   250
370
    30
100
AcDbCircle
 10
739.2003788404677
 20
-516.1678915807151
 30
0.0
 40
6.055363587522833
  0
CIRCLE
  5
8A
330
79
100
AcDbEntity
  8
Livello 1
 62
   250
370
    30
100
AcDbCircle
 10
754.4238696035882
 20
-516.1678915807151
 30
0.0
 40
6.055363587521242
  0
CIRCLE
  5
8B
330
79
100
AcDbEntity
  8
Livello 1
 62
   250
370
    30
100
AcDbCircle
 10
769.6473603667141
 20
-516.1678915807151
 30
0.0
 40
6.055363587516922
  0
CIRCLE
  5
8C
330
79
100
AcDbEntity
  8
Livello 1
 62
   250
370
    30
100
AcDbCircle
 10
784.8708511298382
 20
-516.1678915807151
 30
0.0
 40
6.055363587510782
  0
CIRCLE
  5
8D
330
79
100
AcDbEntity
  8
Livello 1
 62
   250
370
    30
100
AcDbCircle
 10
800.0943418929605
 20
-516.1678915807151
 30
0.0
 40
6.055363587519195
  0
CIRCLE
  5
8E
330
79
100
AcDbEntity
  8
Livello 1
 62
   250
370
    30
100
AcDbCircle
 10
815.317832656091
 20
-516.1678915807169
 30
0.0
 40
6.055363587521696
  0
CIRCLE
  5
8F
330
79
100
AcDbEntity
  8
Livello 1
 62
   250
370
    30
100
AcDbCircle
 10
830.5413239737323
 20
-516.1678915807151
 30
0.0
 40
6.055363587516467
  0
LWPOLYLINE
  5
90
330
79
100
AcDbEntity
  8
Livello 1
 62
   250
370
    30
100
AcDbPolyline
 90
        4
 70
     1
 43
0.0
 10
820.6182096942521
 20
-362.1302697921064
 10
791.907261175409
 20
-362.1302697921064
 10
791.907261175409
 20
-333.4193212694108
 10
820.6182096942521
 20
-333.4193212694108
  0
LINE
  5
91
330
79
100
AcDbEntity
  8
Livello 1
 62
   250
370
    30
100
AcDbLine
 10
806.1497054804823
 20
-333.4193212694108
 30
0.0
 11
806.1497054804823
 21
-362.1302697921064
 31
0.0
  0
CIRCLE
  5
92
330
79
100
AcDbEntity
  8
Livello 1
 62
   250
370
    30
100
AcDbCircle
 10
813.8390533448742
 20
-408.0273494678029
 30
0.0
 40
4.043795566311587
  0
CIRCLE
  5
93
330
79
100
AcDbEntity
  8
Livello 1
 62
   250
370
    30
100
AcDbCircle
 10
813.8390533448742
 20
-420.2270258866485
 30
0.0
 40
4.043795566311359
  0
CIRCLE
  5
94
330
79
100
AcDbEntity
  8
Livello 1
 62
   250
370
    30
100
AcDbCircle
 10
813.8390533448742
 20
-432.4267023054928
 30
0.0
 40
4.04379556631045
  0
CIRCLE
  5
95
330
79
100
AcDbEntity
  8
Livello 1
 62
   250
370
    30
100
AcDbCircle
 10
813.8390533448742
 20
-444.6263787243386
 30
0.0
 40
4.043795566310677
  0
LWPOLYLINE
  5
96
330
79
100
AcDbEntity
  8
Livello 1
 62
   250
370
    60
100
AcDbPolyline
 90
       16
 70
     1
 43
0.0
 10
985.5179243213042
 20
-387.2744901530587
 10
985.5179243213042
 20
-477.5876792168856
 10
957.21106145683
 20
-477.5876792168856
 10
957.21106145683
 20
-500.767087782804
 10
921.1421172524314
 20
-500.767087782804
 10
921.1421172524314
 20
-533.9714389334694
 10
856.7136478588327
 20
-533.9714389334694
 10
856.7136478588327
 20
-476.5267707854982
 10
866.8269725009013
 20
-476.5267707854982
 10
866.8269725009013
 20
-386.7616799744437
 10
856.7136478588327
 20
-386.7616799744437
 10
856.7136478588327
 20
-330.8906225218707
 10
921.1421172524314
 20
-330.8906225218707
 10
921.1421172524314
 20
-364.0950815871402
 10
957.21106145683
 20
-364.0950815871402
 10
957.21106145683
 20
-387.2744901530587
  0
INSERT
  5
98
330
79
100
AcDbEntity
  8
Livello 1
100
AcDbBlockReference
  2
Block_1
 10
0.0
 20
0.0
 30
0.0
  0
INSERT
  5
A5
330
79
100
AcDbEntity
  8
Livello 1
100
AcDbBlockReference
  2
Block_3
 10
0.0
 20
0.0
 30
0.0
  0
LINE
  5
B1
330
79
100
AcDbEntity
  8
Livello 1
 62
   250
370
    30
100
AcDbLine
 10
651.357610543495
 20
-330.6883437230381
 30
0.0
 11
625.8351631430705
 21
-330.6883437230381
 31
0.0
  0
LINE
  5
B2
330
79
100
AcDbEntity
  8
Livello 1
 62
   250
370
    30
100
AcDbLine
 10
651.1521286332463
 20
-533.7644670125664
 30
0.0
 11
625.6296812328255
 21
-533.7644670125664
 31
0.0
  0
INSERT
  5
B4
330
79
100
AcDbEntity
  8
Livello 1
100
AcDbBlockReference
  2
Block_5
 10
0.0
 20
0.0
 30
0.0
  0
INSERT
  5
C1
330
79
100
AcDbEntity
  8
Livello 1
100
AcDbBlockReference
  2
Block_7
 10
0.0
 20
0.0
 30
0.0
  0
LINE
  5
CC
330
79
100
AcDbEntity
  8
Livello 1
 62
   250
370
    30
100
AcDbLine
 10
841.8655047043484
 20
-559.2869144129817
 30
0.0
 11
841.8655047043484
 21
-533.7644670125664
 31
0.0
  0
LINE
  5
CD
330
79
100
AcDbEntity
  8
Livello 1
 62
   250
370
    30
100
AcDbLine
 10
651.2034991108103
 20
-558.8998813875623
 30
0.0
 11
651.2034991108103
 21
-533.3774339871451
 31
0.0
  0
INSERT
  5
CF
330
79
100
AcDbEntity
  8
Livello 1
100
AcDbBlockReference
  2
Block_9
 10
0.0
 20
0.0
 30
0.0
  0
INSERT
  5
DC
330
79
100
AcDbEntity
  8
Livello 1
100
AcDbBlockReference
  2
Block_11
 10
0.0
 20
0.0
 30
0.0
  0
LINE
  5
E9
330
79
100
AcDbEntity
  8
Livello 1
 62
   250
370
    30
100
AcDbLine
 10
985.5179243213042
 20
-559.2869144129817
 30
0.0
 11
985.5179243213042
 21
-475.8617430561316
 31
0.0
  0
LINE
  5
EA
330
79
100
AcDbEntity
  8
Livello 1
 62
   250
370
    30
100
AcDbLine
 10
856.7136478588327
 20
-558.8998813875623
 30
0.0
 11
856.7136478588327
 21
-533.3774339871451
 31
0.0
  0
LINE
  5
EB
330
79
100
AcDbEntity
  8
Livello 1
 62
   250
370
    30
100
AcDbLine
 10
64.01899804197819
 20
-486.1000832443259
 30
0.0
 11
64.01899804197819
 21
-550.6731404789189
 31
0.0
  0
SPLINE
  5
EC
330
79
100
AcDbEntity
  8
Livello 1
 62
   250
370
    60
100
AcDbSpline
210
0.0
220
0.0
230
1.0
 70
    11
 71
     3
 72
    74
 73
    70
 74
     0
 42
0.0000000001
 43
0.0000000001
 40
0.0
 40
0.0
 40
0.0
 40
0.0
 40
1.0
 40
1.0
 40
1.0
 40
2.0
 40
2.0
 40
2.0
 40
3.0
 40
3.0
 40
3.0
 40
4.0
 40
4.0
 40
4.0
 40
5.0
 40
5.0
 40
5.0
 40
6.0
 40
6.0
 40
6.0
 40
7.0
 40
7.0
 40
7.0
 40
8.0
 40
8.0
 40
8.0
 40
9.0
 40
9.0
 40
9.0
 40
10.0
 40
10.0
 40
10.0
 40
11.0
 40
11.0
 40
11.0
 40
12.0
 40
12.0
 40
12.0
 40
13.0
 40
13.0
 40
13.0
 40
14.0
 40
14.0
 40
14.0
 40
15.0
 40
15.0
 40
15.0
 40
16.0
 40
16.0
 40
16.0
 40
17.0
 40
17.0
 40
17.0
 40
18.0
 40
18.0
 40
18.0
 40
19.0
 40
19.0
 40
19.0
 40
20.0
 40
20.0
 40
20.0
 40
21.0
 40
21.0
 40
21.0
 40
22.0
 40
22.0
 40
22.0
 40
23.0
 40
23.0
 40
23.0
 40
23.0
 10
108.6077514777853
 20
-515.1309639736064
 30
0.0
 10
108.6077514777853
 20
-515.1309639736064
 30
0.0
 10
282.1469650345461
 20
-515.1309639736064
 30
0.0
 10
282.1469650345461
 20
-515.1309639736064
 30
0.0
 10
282.1469650345461
 20
-515.1309639736064
 30
0.0
 10
283.864964124301
 20
-514.3482423809055
 30
0.0
 10
288.5402245305959
 20
-520.1107726491354
 30
0.0
 10
293.2154849368944
 20
-525.8733029173672
 30
0.0
 10
298.2169263017968
 20
-531.635833185599
 30
0.0
 10
300.391466025635
 20
-531.635833185599
 30
0.0
 10
302.5660057495143
 20
-531.635833185599
 30
0.0
 10
305.0667264319336
 20
-530.6572903098659
 30
0.0
 10
305.0667264319336
 20
-524.1336711382809
 30
0.0
 10
305.0667264319336
 20
-517.6100519667016
 30
0.0
 10
305.0667264319336
 20
-473.2494415999408
 30
0.0
 10
305.0667264319336
 20
-473.2494415999408
 30
0.0
 10
305.0667264319336
 20
-473.2494415999408
 30
0.0
 10
305.2841804043264
 20
-467.5956383179036
 30
0.0
 10
299.4129231498919
 20
-467.5956383179036
 30
0.0
 10
293.5416658954973
 20
-467.5956383179036
 30
0.0
 10
293.5416658954973
 20
-467.5956383179036
 30
0.0
 10
293.5416658954973
 20
-467.5956383179036
 30
0.0
 10
293.5416658954973
 20
-467.5956383179036
 30
0.0
 10
293.5416658954973
 20
-393.7700146928346
 30
0.0
 10
293.5416658954973
 20
-393.7700146928346
 30
0.0
 10
293.5416658954973
 20
-393.7700146928346
 30
0.0
 10
296.1511135641249
 20
-396.5969163338541
 30
0.0
 10
299.4129231498919
 20
-396.5969163338541
 30
0.0
 10
302.6747327356988
 20
-396.5969163338541
 30
0.0
 10
304.4143645147715
 20
-395.5096464719218
 30
0.0
 10
304.4143645147715
 20
-391.378020996589
 30
0.0
 10
304.4143645147715
 20
-387.2463955212534
 30
0.0
 10
304.4143645147715
 20
-337.4494358448428
 30
0.0
 10
304.4143645147715
 20
-337.4494358448428
 30
0.0
 10
304.4143645147715
 20
-337.4494358448428
 30
0.0
 10
304.3079976400932
 20
-332.8829024247361
 30
0.0
 10
300.391466025635
 20
-332.8829024247361
 30
0.0
 10
296.4749344111742
 20
-332.8829024247361
 30
0.0
 10
294.7376627435933
 20
-336.0359850243367
 30
0.0
 10
289.4100404201536
 20
-342.994512140689
 30
0.0
 10
284.0824180966711
 20
-349.9530392570405
 30
0.0
 10
283.1038752209315
 20
-349.083223367501
 30
0.0
 10
277.9937068698846
 20
-349.083223367501
 30
0.0
 10
272.8835385187977
 20
-349.083223367501
 30
0.0
 10
106.639976629659
 20
-349.0832233675046
 30
0.0
 10
106.639976629659
 20
-349.0832233675046
 30
0.0
 10
106.639976629659
 20
-349.0832233675046
 30
0.0
 10
98.48545266519977
 20
-348.9744963813155
 30
0.0
 10
89.78729376972479
 20
-336.6883469415025
 30
0.0
 10
89.78729376972479
 20
-336.6883469415025
 30
0.0
 10
87.39530007351186
 20
-330.7083627008869
 30
0.0
 10
81.6327698052628
 20
-330.7083627008869
 30
0.0
 10
75.87023953703556
 20
-330.7083627008869
 30
0.0
 10
64.01899804197819
 20
-335.8185310519593
 30
0.0
 10
64.01899804197819
 20
-365.1748173240758
 30
0.0
 10
64.01899804197819
 20
-365.1748173240758
 30
0.0
 10
64.01899804197819
 20
-486.1000832443259
 30
0.0
 10
64.01899804197819
 20
-486.1000832443259
 30
0.0
 10
64.01899804197819
 20
-491.8969405060742
 30
0.0
 10
64.51410537047377
 20
-497.6753082207542
 30
0.0
 10
65.5320532242913
 20
-503.3820880728308
 30
0.0
 10
67.64290566961154
 20
-515.2158673382928
 30
0.0
 10
74.05788282637058
 20
-533.0005803569874
 30
0.0
 10
80.13098632820401
 20
-532.9767680510067
 30
0.0
 10
80.13098632820401
 20
-532.9767680510067
 30
0.0
 10
88.23640493429412
 20
-534.0526000846785
 30
0.0
 10
95.54982403795202
 20
-521.741677442038
 30
0.0
 10
99.66848857201695
 20
-514.8085918700198
 30
0.0
 10
108.6077514777853
 20
-515.1309639736064
 30
0.0
 10
108.6077514777853
 20
-515.1309639736064
 30
0.0
  0
LWPOLYLINE
  5
ED
330
79
100
AcDbEntity
  8
Livello 1
 62
   250
370
    60
100
AcDbPolyline
 90
        4
 70
     1
 43
0.0
 10
277.2732356427177
 20
-349.083223367501
 10
256.289337612754
 20
-349.083223367501
 10
256.289337612754
 20
-321.0127628583241
 10
277.2732356427177
 20
-321.0127628583241
  0
LWPOLYLINE
  5
EE
330
79
100
AcDbEntity
  8
Livello 1
 62
   250
370
    60
100
AcDbPolyline
 90
        4
 70
     1
 43
0.0
 10
253.9822074628574
 20
-349.083223367501
 10
223.390846139474
 20
-349.083223367501
 10
223.390846139474
 20
-321.0127628583241
 10
253.9822074628574
 20
-321.0127628583241
  0
LINE
  5
EF
330
79
100
AcDbEntity
  8
Livello 1
 62
   250
370
    30
100
AcDbLine
 10
223.390846139474
 20
-338.7007606741363
 30
0.0
 11
253.9822074628574
 21
-338.7007606741363
 31
0.0
  0
LINE
  5
F0
330
79
100
AcDbEntity
  8
Livello 1
 62
   250
370
    30
100
AcDbLine
 10
256.289337612754
 20
-338.7007606741363
 30
0.0
 11
277.2732356427177
 21
-338.7007606741363
 31
0.0
  0
CIRCLE
  5
F1
330
79
100
AcDbEntity
  8
Livello 1
 62
   250
370
    30
100
AcDbCircle
 10
228.9333658355083
 20
-330.7083627008858
 30
0.0
 40
3.323526095250144
  0
CIRCLE
  5
F2
330
79
100
AcDbEntity
  8
Livello 1
 62
   250
370
    30
100
AcDbCircle
 10
238.6865268011614
 20
-330.7083627008858
 30
0.0
 40
3.323526095245824
  0
CIRCLE
  5
F3
330
79
100
AcDbEntity
  8
Livello 1
 62
   250
370
    30
100
AcDbCircle
 10
248.4396877668369
 20
-330.7083627008858
 30
0.0
 40
3.323526095252304
  0
CIRCLE
  5
F4
330
79
100
AcDbEntity
  8
Livello 1
 62
   250
370
    30
100
AcDbCircle
 10
261.4815604080929
 20
-330.1167098310445
 30
0.0
 40
3.323526095251509
  0
CIRCLE
  5
F5
330
79
100
AcDbEntity
  8
Livello 1
 62
   250
370
    30
100
AcDbCircle
 10
272.3504516545065
 20
-330.1167098310445
 30
0.0
 40
3.32352609524537
  0
SPLINE
  5
F6
330
79
100
AcDbEntity
  8
Livello 1
 62
   250
370
    30
100
AcDbSpline
210
0.0
220
0.0
230
1.0
 70
    11
 71
     3
 72
    20
 73
    16
 74
     0
 42
0.0000000001
 43
0.0000000001
 40
0.0
 40
0.0
 40
0.0
 40
0.0
 40
1.0
 40
1.0
 40
1.0
 40
2.0
 40
2.0
 40
2.0
 40
3.0
 40
3.0
 40
3.0
 40
4.0
 40
4.0
 40
4.0
 40
5.0
 40
5.0
 40
5.0
 40
5.0
 10
301.338834604051
 20
-391.9546788380531
 30
0.0
 10
301.338834604051
 20
-391.9546788380531
 30
0.0
 10
295.3229288368948
 20
-393.2706582246165
 30
0.0
 10
295.1349317816593
 20
-385.7507760156723
 30
0.0
 10
294.9469347264239
 20
-378.2308938067317
 30
0.0
 10
295.1349317816593
 20
-344.2034268112739
 30
0.0
 10
295.1349317816593
 20
-344.2034268112739
 30
0.0
 10
295.1349317816593
 20
-344.2034268112739
 30
0.0
 10
295.8869200025383
 20
-337.4355328232268
 30
0.0
 10
299.270866996565
 20
-337.4355328232268
 30
0.0
 10
301.5907212834954
 20
-337.4355328232268
 30
0.0
 10
301.338834604051
 20
-344.7674179769429
 30
0.0
 10
301.338834604051
 20
-344.7674179769429
 30
0.0
 10
301.338834604051
 20
-344.7674179769429
 30
0.0
 10
301.338834604051
 20
-391.9546788380531
 30
0.0
 10
301.338834604051
 20
-391.9546788380531
 30
0.0
  0
SPLINE
  5
F7
330
79
100
AcDbEntity
  8
Livello 1
 62
   250
370
    30
100
AcDbSpline
210
0.0
220
0.0
230
1.0
 70
    11
 71
     3
 72
    20
 73
    16
 74
     0
 42
0.0000000001
 43
0.0000000001
 40
0.0
 40
0.0
 40
0.0
 40
0.0
 40
1.0
 40
1.0
 40
1.0
 40
2.0
 40
2.0
 40
2.0
 40
3.0
 40
3.0
 40
3.0
 40
4.0
 40
4.0
 40
4.0
 40
5.0
 40
5.0
 40
5.0
 40
5.0
 10
301.3388346052488
 20
-472.1345459315671
 30
0.0
 10
301.3388346052488
 20
-472.1345459315671
 30
0.0
 10
295.3229288381726
 20
-470.818566544729
 30
0.0
 10
295.1349317825961
 20
-478.3384487536659
 30
0.0
 10
294.9469347270633
 20
-485.8583309625955
 30
0.0
 10
295.1349317807408
 20
-519.8857979580679
 30
0.0
 10
295.1349317807408
 20
-519.8857979580679
 30
0.0
 10
295.1349317807408
 20
-519.8857979580679
 30
0.0
 10
295.8869200013187
 20
-526.6536919461432
 30
0.0
 10
299.270866995349
 20
-526.653691946296
 30
0.0
 10
301.5907212822749
 20
-526.6536919464051
 30
0.0
 10
301.3388346031506
 20
-519.3218067926773
 30
0.0
 10
301.3388346031506
 20
-519.3218067926773
 30
0.0
 10
301.3388346031506
 20
-519.3218067926773
 30
0.0
 10
301.3388346052488
 20
-472.1345459315671
 30
0.0
 10
301.3388346052488
 20
-472.1345459315671
 30
0.0
  0
SPLINE
  5
F8
330
79
100
AcDbEntity
  8
Livello 1
 62
   250
370
    60
100
AcDbSpline
210
0.0
220
0.0
230
1.0
 70
     9
 71
     3
 72
    29
 73
    25
 74
     0
 42
0.0000000001
 43
0.0000000001
 40
0.0
 40
0.0
 40
0.0
 40
0.0
 40
1.0
 40
1.0
 40
1.0
 40
2.0
 40
2.0
 40
2.0
 40
3.0
 40
3.0
 40
3.0
 40
4.0
 40
4.0
 40
4.0
 40
5.0
 40
5.0
 40
5.0
 40
6.0
 40
6.0
 40
6.0
 40
7.0
 40
7.0
 40
7.0
 40
8.0
 40
8.0
 40
8.0
 40
8.0
 10
425.8682690517489
 20
-531.635833185599
 30
0.0
 10
425.8682690517489
 20
-531.635833185599
 30
0.0
 10
394.0740079496754
 20
-531.635833185599
 30
0.0
 10
394.0740079496754
 20
-531.635833185599
 30
0.0
 10
393.0087609296015
 20
-531.635833185599
 30
0.0
 10
392.1452075973157
 20
-530.7722798533177
 30
0.0
 10
392.1452075973157
 20
-529.7070328332356
 30
0.0
 10
392.1452075973157
 20
-529.7070328332356
 30
0.0
 10
392.1465986776557
 20
-332.6371630532494
 30
0.0
 10
392.1465986776557
 20
-332.6371630532494
 30
0.0
 10
392.1465986776557
 20
-331.5719160331719
 30
0.0
 10
393.010152009937
 20
-330.7083627008869
 30
0.0
 10
394.0753990300145
 20
-330.7083627008869
 30
0.0
 10
394.0753990300145
 20
-330.7083627008869
 30
0.0
 10
425.8696601320488
 20
-330.7083627008869
 30
0.0
 10
425.8696601320488
 20
-330.7083627008869
 30
0.0
 10
426.9349071521446
 20
-330.7083627008869
 30
0.0
 10
427.7984604844296
 20
-331.5719160331719
 30
0.0
 10
427.7984604844296
 20
-332.6371630532494
 30
0.0
 10
427.7984604844296
 20
-332.6371630532494
 30
0.0
 10
427.7970694040905
 20
-529.7070328332356
 30
0.0
 10
427.7970694040905
 20
-529.7070328332356
 30
0.0
 10
427.7970694040905
 20
-530.7722798533177
 30
0.0
 10
426.9335160718228
 20
-531.635833185599
 30
0.0
 10
425.8682690517489
 20
-531.635833185599
 30
0.0
  0
CIRCLE
  5
F9
330
79
100
AcDbEntity
  8
Livello 1
 62
   250
370
    30
100
AcDbCircle
 10
403.7847880420111
 20
-366.779524477776
 30
0.0
 40
3.920423663470273
  0
CIRCLE
  5
FA
330
79
100
AcDbEntity
  8
Livello 1
 62
   250
370
    30
100
AcDbCircle
 10
403.7847880420111
 20
-380.5633387059243
 30
0.0
 40
3.920423663469478
  0
CIRCLE
  5
FB
330
79
100
AcDbEntity
  8
Livello 1
 62
   250
370
    30
100
AcDbCircle
 10
403.7847880420111
 20
-394.3471529340698
 30
0.0
 40
3.920423663469591
  0
CIRCLE
  5
FC
330
79
100
AcDbEntity
  8
Livello 1
 62
   250
370
    30
100
AcDbCircle
 10
403.7847880420111
 20
-407.6898851069183
 30
0.0
 40
3.920423663469591
  0
CIRCLE
  5
FD
330
79
100
AcDbEntity
  8
Livello 1
 62
   250
370
    30
100
AcDbCircle
 10
403.7847880420111
 20
-425.8845198880696
 30
0.0
 40
3.920423663468909
  0
SPLINE
  5
FE
330
79
100
AcDbEntity
  8
Livello 1
 62
   250
370
    30
100
AcDbSpline
210
0.0
220
0.0
230
1.0
 70
    11
 71
     3
 72
    29
 73
    25
 74
     0
 42
0.0000000001
 43
0.0000000001
 40
0.0
 40
0.0
 40
0.0
 40
0.0
 40
1.0
 40
1.0
 40
1.0
 40
2.0
 40
2.0
 40
2.0
 40
3.0
 40
3.0
 40
3.0
 40
4.0
 40
4.0
 40
4.0
 40
5.0
 40
5.0
 40
5.0
 40
6.0
 40
6.0
 40
6.0
 40
7.0
 40
7.0
 40
7.0
 40
8.0
 40
8.0
 40
8.0
 40
8.0
 10
420.7292763170189
 20
-457.0718774675042
 30
0.0
 10
420.7292763170189
 20
-457.0718774675042
 30
0.0
 10
405.909318874922
 20
-457.0718774675042
 30
0.0
 10
405.909318874922
 20
-457.0718774675042
 30
0.0
 10
405.909318874922
 20
-457.0718774675042
 30
0.0
 10
405.909318874922
 20
-449.2740856892151
 30
0.0
 10
405.909318874922
 20
-449.2740856892151
 30
0.0
 10
405.909318874922
 20
-449.2740856892151
 30
0.0
 10
403.371298789937
 20
-449.2740856892151
 30
0.0
 10
403.371298789937
 20
-449.2740856892151
 30
0.0
 10
403.371298789937
 20
-449.2740856892151
 30
0.0
 10
403.371298789937
 20
-440.7073957591237
 30
0.0
 10
403.371298789937
 20
-440.7073957591237
 30
0.0
 10
403.371298789937
 20
-440.7073957591237
 30
0.0
 10
405.909318874922
 20
-440.7073957591237
 30
0.0
 10
405.909318874922
 20
-440.7073957591237
 30
0.0
 10
405.909318874922
 20
-440.7073957591237
 30
0.0
 10
405.909318874922
 20
-432.9027929569146
 30
0.0
 10
405.909318874922
 20
-432.9027929569146
 30
0.0
 10
405.909318874922
 20
-432.9027929569146
 30
0.0
 10
420.7292763170189
 20
-432.9027929569146
 30
0.0
 10
420.7292763170189
 20
-432.9027929569146
 30
0.0
 10
420.7292763170189
 20
-432.9027929569146
 30
0.0
 10
420.7292763170189
 20
-457.0718774675042
 30
0.0
 10
420.7292763170189
 20
-457.0718774675042
 30
0.0
  0
SPLINE
  5
FF
330
79
100
AcDbEntity
  8
Livello 1
 62
   250
370
    30
100
AcDbSpline
210
0.0
220
0.0
230
1.0
 70
    11
 71
     3
 72
    17
 73
    13
 74
     0
 42
0.0000000001
 43
0.0000000001
 40
0.0
 40
0.0
 40
0.0
 40
0.0
 40
1.0
 40
1.0
 40
1.0
 40
2.0
 40
2.0
 40
2.0
 40
3.0
 40
3.0
 40
3.0
 40
4.0
 40
4.0
 40
4.0
 40
4.0
 10
399.8670269819222
 20
-430.6436926076812
 30
0.0
 10
399.8670269819222
 20
-430.6436926076812
 30
0.0
 10
399.8670269819222
 20
-459.3308947554687
 30
0.0
 10
399.8670269819222
 20
-459.3308947554687
 30
0.0
 10
399.8670269819222
 20
-459.3308947554687
 30
0.0
 10
424.0021394342029
 20
-459.3308947554687
 30
0.0
 10
424.0021394342029
 20
-459.3308947554687
 30
0.0
 10
424.0021394342029
 20
-459.3308947554687
 30
0.0
 10
424.0021394342029
 20
-430.6436926076812
 30
0.0
 10
424.0021394342029
 20
-430.6436926076812
 30
0.0
 10
424.0021394342029
 20
-430.6436926076812
 30
0.0
 10
399.8670269819222
 20
-430.6436926076812
 30
0.0
 10
399.8670269819222
 20
-430.6436926076812
 30
0.0
  0
LWPOLYLINE
  5
100
330
79
100
AcDbEntity
  8
Livello 1
 62
   250
370
    30
100
AcDbPolyline
 90
        8
 70
     1
 43
0.0
 10
420.7292763170189
 20
-432.9027929569146
 10
420.7292763170189
 20
-457.0718774675042
 10
405.909318874922
 20
-457.0718774675042
 10
405.909318874922
 20
-449.2740856892151
 10
403.371298789937
 20
-449.2740856892151
 10
403.371298789937
 20
-440.7073957591237
 10
405.909318874922
 20
-440.7073957591237
 10
405.909318874922
 20
-432.9027929569146
  0
CIRCLE
  5
101
330
79
100
AcDbEntity
  8
Livello 1
 62
   250
370
    30
100
AcDbCircle
 10
403.7847880420111
 20
-466.7345659084857
 30
0.0
 40
3.920423663471751
  0
SPLINE
  5
102
330
79
100
AcDbEntity
  8
Livello 1
 62
   250
370
    30
100
AcDbSpline
210
0.0
220
0.0
230
1.0
 70
    11
 71
     3
 72
    29
 73
    25
 74
     0
 42
0.0000000001
 43
0.0000000001
 40
0.0
 40
0.0
 40
0.0
 40
0.0
 40
1.0
 40
1.0
 40
1.0
 40
2.0
 40
2.0
 40
2.0
 40
3.0
 40
3.0
 40
3.0
 40
4.0
 40
4.0
 40
4.0
 40
5.0
 40
5.0
 40
5.0
 40
6.0
 40
6.0
 40
6.0
 40
7.0
 40
7.0
 40
7.0
 40
8.0
 40
8.0
 40
8.0
 40
8.0
 10
420.7292763170189
 20
-497.9219234879183
 30
0.0
 10
420.7292763170189
 20
-497.9219234879183
 30
0.0
 10
405.909318874922
 20
-497.9219234879183
 30
0.0
 10
405.909318874922
 20
-497.9219234879183
 30
0.0
 10
405.909318874922
 20
-497.9219234879183
 30
0.0
 10
405.909318874922
 20
-490.1241317096337
 30
0.0
 10
405.909318874922
 20
-490.1241317096337
 30
0.0
 10
405.909318874922
 20
-490.1241317096337
 30
0.0
 10
403.371298789937
 20
-490.1241317096337
 30
0.0
 10
403.371298789937
 20
-490.1241317096337
 30
0.0
 10
403.371298789937
 20
-490.1241317096337
 30
0.0
 10
403.371298789937
 20
-481.5574417795378
 30
0.0
 10
403.371298789937
 20
-481.5574417795378
 30
0.0
 10
403.371298789937
 20
-481.5574417795378
 30
0.0
 10
405.909318874922
 20
-481.5574417795378
 30
0.0
 10
405.909318874922
 20
-481.5574417795378
 30
0.0
 10
405.909318874922
 20
-481.5574417795378
 30
0.0
 10
405.909318874922
 20
-473.7528389773324
 30
0.0
 10
405.909318874922
 20
-473.7528389773324
 30
0.0
 10
405.909318874922
 20
-473.7528389773324
 30
0.0
 10
420.7292763170189
 20
-473.7528389773324
 30
0.0
 10
420.7292763170189
 20
-473.7528389773324
 30
0.0
 10
420.7292763170189
 20
-473.7528389773324
 30
0.0
 10
420.7292763170189
 20
-497.9219234879183
 30
0.0
 10
420.7292763170189
 20
-497.9219234879183
 30
0.0
  0
SPLINE
  5
103
330
79
100
AcDbEntity
  8
Livello 1
 62
   250
370
    30
100
AcDbSpline
210
0.0
220
0.0
230
1.0
 70
    11
 71
     3
 72
    17
 73
    13
 74
     0
 42
0.0000000001
 43
0.0000000001
 40
0.0
 40
0.0
 40
0.0
 40
0.0
 40
1.0
 40
1.0
 40
1.0
 40
2.0
 40
2.0
 40
2.0
 40
3.0
 40
3.0
 40
3.0
 40
4.0
 40
4.0
 40
4.0
 40
4.0
 10
399.8670269819222
 20
-471.4937386280999
 30
0.0
 10
399.8670269819222
 20
-471.4937386280999
 30
0.0
 10
399.8670269819222
 20
-500.1809407758828
 30
0.0
 10
399.8670269819222
 20
-500.1809407758828
 30
0.0
 10
399.8670269819222
 20
-500.1809407758828
 30
0.0
 10
424.0021394342029
 20
-500.1809407758828
 30
0.0
 10
424.0021394342029
 20
-500.1809407758828
 30
0.0
 10
424.0021394342029
 20
-500.1809407758828
 30
0.0
 10
424.0021394342029
 20
-471.4937386280999
 30
0.0
 10
424.0021394342029
 20
-471.4937386280999
 30
0.0
 10
424.0021394342029
 20
-471.4937386280999
 30
0.0
 10
399.8670269819222
 20
-471.4937386280999
 30
0.0
 10
399.8670269819222
 20
-471.4937386280999
 30
0.0
  0
LWPOLYLINE
  5
104
330
79
100
AcDbEntity
  8
Livello 1
 62
   250
370
    30
100
AcDbPolyline
 90
        8
 70
     1
 43
0.0
 10
420.7292763170189
 20
-473.7528389773324
 10
420.7292763170189
 20
-497.9219234879183
 10
405.909318874922
 20
-497.9219234879183
 10
405.909318874922
 20
-490.1241317096337
 10
403.371298789937
 20
-490.1241317096337
 10
403.371298789937
 20
-481.5574417795378
 10
405.909318874922
 20
-481.5574417795378
 10
405.909318874922
 20
-473.7528389773324
  0
LWPOLYLINE
  5
105
330
79
100
AcDbEntity
  8
Livello 1
 62
   250
370
    30
100
AcDbPolyline
 90
        4
 70
     1
 43
0.0
 10
422.552489001162
 20
-520.6121795236685
 10
397.9018935406584
 20
-520.6121795236685
 10
397.9018935406584
 20
-514.9468157099981
 10
422.552489001162
 20
-514.9468157099981
  0
LWPOLYLINE
  5
106
330
79
100
AcDbEntity
  8
Livello 1
 62
   250
370
    30
100
AcDbPolyline
 90
        4
 70
     1
 43
0.0
 10
422.552489001162
 20
-349.3175881164944
 10
397.9018935406584
 20
-349.3175881164944
 10
397.9018935406584
 20
-343.6522243028212
 10
422.552489001162
 20
-343.6522243028212
  0
LWPOLYLINE
  5
107
330
79
100
AcDbEntity
  8
Livello 1
 62
   250
370
    60
100
AcDbPolyline
 90
        4
 70
     1
 43
0.0
 10
422.0436407816578
 20
-321.0127628583241
 10
397.905865725993
 20
-321.0127628583241
 10
397.9025088548069
 20
-330.7083627008869
 10
422.0408985977301
 20
-330.7083627008869
  0
INSERT
  5
109
330
79
100
AcDbEntity
  8
Livello 1
100
AcDbBlockReference
  2
Block_13
 10
0.0
 20
0.0
 30
0.0
  0
INSERT
  5
116
330
79
100
AcDbEntity
  8
Livello 1
100
AcDbBlockReference
  2
Block_15
 10
0.0
 20
0.0
 30
0.0
  0
INSERT
  5
123
330
79
100
AcDbEntity
  8
Livello 1
100
AcDbBlockReference
  2
Block_17
 10
0.0
 20
0.0
 30
0.0
  0
INSERT
  5
130
330
79
100
AcDbEntity
  8
Livello 1
100
AcDbBlockReference
  2
Block_19
 10
0.0
 20
0.0
 30
0.0
  0
INSERT
  5
13F
330
79
100
AcDbEntity
  8
Livello 1
100
AcDbBlockReference
  2
Block_21
 10
0.0
 20
0.0
 30
0.0
  0
INSERT
  5
14B
330
79
100
AcDbEntity
  8
Livello 1
100
AcDbBlockReference
  2
Block_23
 10
0.0
 20
0.0
 30
0.0
  0
LINE
  5
159
330
79
100
AcDbEntity
  8
Livello 1
 62
   250
370
    30
100
AcDbLine
 10
305.0667264319336
 20
-524.1336711382809
 30
0.0
 11
305.0677606957933
 21
-551.0601735043328
 31
0.0
  0
LINE
  5
15A
330
79
100
AcDbEntity
  8
Livello 1
 62
   250
370
    30
100
AcDbLine
 10
427.797943352507
 20
-524.1336711382809
 30
0.0
 11
427.7989776163667
 21
-551.0601735043328
 31
0.0
  0
LINE
  5
15B
330
79
100
AcDbEntity
  8
Livello 1
 62
   250
370
    30
100
AcDbLine
 10
392.1446904653976
 20
-524.1336711382809
 30
0.0
 11
392.1457247292565
 21
-551.0601735043328
 31
0.0
  0
LINE
  5
15C
330
79
100
AcDbEntity
  8
Livello 1
 62
   250
370
    30
100
AcDbLine
 10
300.391466025635
 20
-531.635833185599
 30
0.0
 11
329.1249054232257
 21
-531.635833185599
 31
0.0
  0
LINE
  5
15D
330
79
100
AcDbEntity
  8
Livello 1
 62
   250
370
    30
100
AcDbLine
 10
301.1869331984363
 20
-332.8829024247361
 30
0.0
 11
329.9203725960079
 21
-332.8829024247361
 31
0.0
  0
INSERT
  5
15F
330
79
100
AcDbEntity
  8
Livello 1
100
AcDbBlockReference
  2
Block_25
 10
0.0
 20
0.0
 30
0.0
  0
INSERT
  5
171
330
79
100
AcDbEntity
  8
Livello 1
100
AcDbBlockReference
  2
Block_28
 10
0.0
 20
0.0
 30
0.0
  0
ENDBLK
  5
7C
330
79
100
AcDbEntity
  8
0
100
AcDbBlockEnd
  0
BLOCK
  5
99
330
97
100
AcDbEntity
  8
0
100
AcDbBlockBegin
  2
Block_1
 70
     0
 10
0.0
 20
0.0
 30
0.0
  3
Block_1
  1

  0
INSERT
  5
9C
330
97
100
AcDbEntity
  8
Livello 1
100
AcDbBlockReference
  2
Block_2
 10
0.0
 20
0.0
 30
0.0
  0
ENDBLK
  5
9A
330
97
100
AcDbEntity
  8
0
100
AcDbBlockEnd
  0
BLOCK
  5
9D
330
9B
100
AcDbEntity
  8
0
100
AcDbBlockBegin
  2
Block_2
 70
     0
 10
0.0
 20
0.0
 30
0.0
  3
Block_2
  1

  0
LINE
  5
9F
330
9B
100
AcDbEntity
  8
Livello 1
 62
   250
370
    30
100
AcDbLine
 10
625.8255004882812
 20
-335.7632141113281
 30
0.0
 11
625.4578247070313
 21
-528.6895751953125
 31
0.0
  0
LWPOLYLINE
  5
A0
330
9B
100
AcDbEntity
  8
Livello 1
100
AcDbPolyline
 90
        3
 70
     1
 43
0.0
 10
622.2970581054688
 20
-336.788330078125
 10
625.8348388671874
 20
-330.6883544921875
 10
629.3496704101563
 20
-336.8017883300781
  0
HATCH
  5
A1
330
9B
100
AcDbEntity
  8
Livello 1
 62
   250
100
AcDbHatch
 10
0.0
 20
0.0
 30
0.0
210
0.0
220
0.0
230
1.0
  2
SOLID
 70
     1
 71
     1
 91
        1
 92
        1
 93
        3
 72
     1
 10
622.2970581054688
 20
-336.788330078125
 11
625.8348388671874
 21
-330.6883544921875
 72
     1
 10
625.8348388671874
 20
-330.6883544921875
 11
629.3496704101563
 21
-336.8017883300781
 72
     1
 10
629.3496704101563
 20
-336.8017883300781
 11
622.2970581054688
 21
-336.788330078125
 97
        1
330
A0
 75
     2
 76
     1
 98
        1
 10
0.0
 20
0.0
  0
LWPOLYLINE
  5
A2
330
9B
100
AcDbEntity
  8
Livello 1
100
AcDbPolyline
 90
        3
 70
     1
 43
0.0
 10
621.9332885742187
 20
-527.6510620117187
 10
625.4478149414062
 20
-533.7644653320312
 10
628.9859008789062
 20
-527.6644897460937
  0
HATCH
  5
A3
330
9B
100
AcDbEntity
  8
Livello 1
 62
   250
100
AcDbHatch
 10
0.0
 20
0.0
 30
0.0
210
0.0
220
0.0
230
1.0
  2
SOLID
 70
     1
 71
     1
 91
        1
 92
        1
 93
        3
 72
     1
 10
621.9332885742187
 20
-527.6510620117187
 11
625.4478149414062
 21
-533.7644653320312
 72
     1
 10
625.4478149414062
 20
-533.7644653320312
 11
628.9859008789062
 21
-527.6644897460937
 72
     1
 10
628.9859008789062
 20
-527.6644897460937
 11
621.9332885742187
 21
-527.6510620117187
 97
        1
330
A2
 75
     2
 76
     1
 98
        1
 10
0.0
 20
0.0
  0
ENDBLK
  5
9E
330
9B
100
AcDbEntity
  8
0
100
AcDbBlockEnd
  0
BLOCK
  5
A6
330
A4
100
AcDbEntity
  8
0
100
AcDbBlockBegin
  2
Block_3
 70
     0
 10
0.0
 20
0.0
 30
0.0
  3
Block_3
  1

  0
INSERT
  5
A9
330
A4
100
AcDbEntity
  8
Livello 1
100
AcDbBlockReference
  2
Block_4
 10
0.0
 20
0.0
 30
0.0
  0
ENDBLK
  5
A7
330
A4
100
AcDbEntity
  8
0
100
AcDbBlockEnd
  0
BLOCK
  5
AA
330
A8
100
AcDbEntity
  8
0
100
AcDbBlockBegin
  2
Block_4
 70
     0
 10
0.0
 20
0.0
 30
0.0
  3
Block_4
  1

  0
SPLINE
  5
AC
330
A8
100
AcDbEntity
  8
Livello 1
100
AcDbSpline
210
0.0
220
0.0
230
1.0
 70
    11
 71
     3
 72
    29
 73
    25
 74
     0
 42
0.0000000001
 43
0.0000000001
 40
0.0
 40
0.0
 40
0.0
 40
0.0
 40
1.0
 40
1.0
 40
1.0
 40
2.0
 40
2.0
 40
2.0
 40
3.0
 40
3.0
 40
3.0
 40
4.0
 40
4.0
 40
4.0
 40
5.0
 40
5.0
 40
5.0
 40
6.0
 40
6.0
 40
6.0
 40
7.0
 40
7.0
 40
7.0
 40
8.0
 40
8.0
 40
8.0
 40
8.0
 10
616.5380859375
 20
-434.5566406249999
 30
0.0
 10
616.2636718749999
 20
-434.2114257812499
 30
0.0
 10
615.7841796875
 20
-434.0390625
 30
0.0
 10
615.0996093749999
 20
-434.0390625
 30
0.0
 10
614.4843749999999
 20
-434.0390625
 30
0.0
 10
614.0263671875
 20
-434.19384765625
 30
0.0
 10
613.7246093749999
 20
-434.5039062499999
 30
0.0
 10
613.4228515624999
 20
-434.8139648437499
 30
0.0
 10
613.271484375
 20
-435.2084960937499
 30
0.0
 10
613.271484375
 20
-435.6879882812499
 30
0.0
 10
613.271484375
 20
-436.20263671875
 30
0.0
 10
613.4443359375
 20
-436.611328125
 30
0.0
 10
613.7890624999999
 20
-436.9130859374999
 30
0.0
 10
614.1328125
 20
-437.21533203125
 30
0.0
 10
614.59375
 20
-437.3662109375
 30
0.0
 10
615.1689453124999
 20
-437.3662109375
 30
0.0
 10
615.7138671874999
 20
-437.3662109375
 30
0.0
 10
616.1474609375
 20
-437.23388671875
 30
0.0
 10
616.46875
 20
-436.96875
 30
0.0
 10
616.7890625
 20
-436.70361328125
 30
0.0
 10
616.9501953124999
 20
-436.28076171875
 30
0.0
 10
616.9501953124999
 20
-435.69970703125
 30
0.0
 10
616.9501953124999
 20
-435.28271484375
 30
0.0
 10
616.8124999999999
 20
-434.90185546875
 30
0.0
 10
616.5380859375
 20
-434.5566406249999
 30
0.0
  0
SPLINE
  5
AD
330
A8
100
AcDbEntity
  8
Livello 1
100
AcDbSpline
210
0.0
220
0.0
230
1.0
 70
     9
 71
     3
 72
    56
 73
    52
 74
     0
 42
0.0000000001
 43
0.0000000001
 40
0.0
 40
0.0
 40
0.0
 40
0.0
 40
1.0
 40
1.0
 40
1.0
 40
2.0
 40
2.0
 40
2.0
 40
3.0
 40
3.0
 40
3.0
 40
4.0
 40
4.0
 40
4.0
 40
5.0
 40
5.0
 40
5.0
 40
6.0
 40
6.0
 40
6.0
 40
7.0
 40
7.0
 40
7.0
 40
8.0
 40
8.0
 40
8.0
 40
9.0
 40
9.0
 40
9.0
 40
10.0
 40
10.0
 40
10.0
 40
11.0
 40
11.0
 40
11.0
 40
12.0
 40
12.0
 40
12.0
 40
13.0
 40
13.0
 40
13.0
 40
14.0
 40
14.0
 40
14.0
 40
15.0
 40
15.0
 40
15.0
 40
16.0
 40
16.0
 40
16.0
 40
17.0
 40
17.0
 40
17.0
 40
17.0
 10
618.6689453125
 20
-437.2963867187499
 30
0.0
 10
619.2499999999999
 20
-437.26513671875
 30
0.0
 10
619.6513671875
 20
-437.041015625
 30
0.0
 10
619.8740234375
 20
-436.62353515625
 30
0.0
 10
619.9902343749999
 20
-436.4091796874999
 30
0.0
 10
620.048828125
 20
-436.16748046875
 30
0.0
 10
620.048828125
 20
-435.8984375
 30
0.0
 10
620.048828125
 20
-435.3955078124999
 30
0.0
 10
619.8398437499999
 20
-434.966796875
 30
0.0
 10
619.4208984374999
 20
-434.6123046875
 30
0.0
 10
619.0019531249999
 20
-434.25732421875
 30
0.0
 10
618.150390625
 20
-434.005859375
 30
0.0
 10
616.8681640625
 20
-433.8579101562499
 30
0.0
 10
617.23828125
 20
-434.091796875
 30
0.0
 10
617.4990234375
 20
-434.38134765625
 30
0.0
 10
617.6484375
 20
-434.72607421875
 30
0.0
 10
617.798828125
 20
-435.0712890625
 30
0.0
 10
617.8740234374999
 20
-435.4423828125
 30
0.0
 10
617.8740234374999
 20
-435.84033203125
 30
0.0
 10
617.8740234374999
 20
-436.64697265625
 30
0.0
 10
617.623046875
 20
-437.28564453125
 30
0.0
 10
617.1201171875
 20
-437.7553710937499
 30
0.0
 10
616.6181640625
 20
-438.22509765625
 30
0.0
 10
615.9716796875
 20
-438.4599609374999
 30
0.0
 10
615.1806640624999
 20
-438.4599609374999
 30
0.0
 10
614.421875
 20
-438.4599609374999
 30
0.0
 10
613.75390625
 20
-438.2280273437499
 30
0.0
 10
613.177734375
 20
-437.7641601562499
 30
0.0
 10
612.6005859374999
 20
-437.3002929687499
 30
0.0
 10
612.3124999999999
 20
-436.6157226562499
 30
0.0
 10
612.3124999999999
 20
-435.71142578125
 30
0.0
 10
612.3124999999999
 20
-434.4912109375
 30
0.0
 10
612.8623046875
 20
-433.6494140624999
 30
0.0
 10
613.9609375
 20
-433.1855468749999
 30
0.0
 10
614.564453125
 20
-432.92822265625
 30
0.0
 10
615.3203125
 20
-432.7993164062499
 30
0.0
 10
616.228515625
 20
-432.7993164062499
 30
0.0
 10
617.2529296875
 20
-432.7993164062499
 30
0.0
 10
618.16015625
 20
-432.9536132812499
 30
0.0
 10
618.951171875
 20
-433.26123046875
 30
0.0
 10
620.2675781249999
 20
-433.7719726562499
 30
0.0
 10
620.9267578124999
 20
-434.6376953125
 30
0.0
 10
620.9267578124999
 20
-435.85791015625
 30
0.0
 10
620.9267578124999
 20
-436.67626953125
 30
0.0
 10
620.7119140625
 20
-437.29833984375
 30
0.0
 10
620.2832031249999
 20
-437.7231445312499
 30
0.0
 10
619.8544921875
 20
-438.14794921875
 30
0.0
 10
619.31640625
 20
-438.3603515625
 30
0.0
 10
618.6689453125
 20
-438.3603515625
 30
0.0
 10
618.6689453125
 20
-438.3603515625
 30
0.0
 10
618.6689453125
 20
-437.2963867187499
 30
0.0
 10
618.6689453125
 20
-437.2963867187499
 30
0.0
  0
HATCH
  5
AE
330
A8
100
AcDbEntity
  8
Livello 1
 62
   250
100
AcDbHatch
 10
0.0
 20
0.0
 30
0.0
210
0.0
220
0.0
230
1.0
  2
SOLID
 70
     1
 71
     1
 91
        2
 92
        1
 93
        1
 72
     4
 94
        3
 73
     0
 74
     0
 95
       29
 96
       25
 40
0.0
 40
0.0
 40
0.0
 40
0.0
 40
1.0
 40
1.0
 40
1.0
 40
2.0
 40
2.0
 40
2.0
 40
3.0
 40
3.0
 40
3.0
 40
4.0
 40
4.0
 40
4.0
 40
5.0
 40
5.0
 40
5.0
 40
6.0
 40
6.0
 40
6.0
 40
7.0
 40
7.0
 40
7.0
 40
8.0
 40
8.0
 40
8.0
 40
8.0
 10
616.5380859375
 20
-434.5566406249999
 10
616.2636718749999
 20
-434.2114257812499
 10
615.7841796875
 20
-434.0390625
 10
615.0996093749999
 20
-434.0390625
 10
614.4843749999999
 20
-434.0390625
 10
614.0263671875
 20
-434.19384765625
 10
613.7246093749999
 20
-434.5039062499999
 10
613.4228515624999
 20
-434.8139648437499
 10
613.271484375
 20
-435.2084960937499
 10
613.271484375
 20
-435.6879882812499
 10
613.271484375
 20
-436.20263671875
 10
613.4443359375
 20
-436.611328125
 10
613.7890624999999
 20
-436.9130859374999
 10
614.1328125
 20
-437.21533203125
 10
614.59375
 20
-437.3662109375
 10
615.1689453124999
 20
-437.3662109375
 10
615.7138671874999
 20
-437.3662109375
 10
616.1474609375
 20
-437.23388671875
 10
616.46875
 20
-436.96875
 10
616.7890625
 20
-436.70361328125
 10
616.9501953124999
 20
-436.28076171875
 10
616.9501953124999
 20
-435.69970703125
 10
616.9501953124999
 20
-435.28271484375
 10
616.8124999999999
 20
-434.90185546875
 10
616.5380859375
 20
-434.5566406249999
 97
        1
330
AC
 92
        1
 93
        1
 72
     4
 94
        3
 73
     0
 74
     0
 95
       56
 96
       52
 40
0.0
 40
0.0
 40
0.0
 40
0.0
 40
1.0
 40
1.0
 40
1.0
 40
2.0
 40
2.0
 40
2.0
 40
3.0
 40
3.0
 40
3.0
 40
4.0
 40
4.0
 40
4.0
 40
5.0
 40
5.0
 40
5.0
 40
6.0
 40
6.0
 40
6.0
 40
7.0
 40
7.0
 40
7.0
 40
8.0
 40
8.0
 40
8.0
 40
9.0
 40
9.0
 40
9.0
 40
10.0
 40
10.0
 40
10.0
 40
11.0
 40
11.0
 40
11.0
 40
12.0
 40
12.0
 40
12.0
 40
13.0
 40
13.0
 40
13.0
 40
14.0
 40
14.0
 40
14.0
 40
15.0
 40
15.0
 40
15.0
 40
16.0
 40
16.0
 40
16.0
 40
17.0
 40
17.0
 40
17.0
 40
17.0
 10
618.6689453125
 20
-437.2963867187499
 10
619.2499999999999
 20
-437.26513671875
 10
619.6513671875
 20
-437.041015625
 10
619.8740234375
 20
-436.62353515625
 10
619.9902343749999
 20
-436.4091796874999
 10
620.048828125
 20
-436.16748046875
 10
620.048828125
 20
-435.8984375
 10
620.048828125
 20
-435.3955078124999
 10
619.8398437499999
 20
-434.966796875
 10
619.4208984374999
 20
-434.6123046875
 10
619.0019531249999
 20
-434.25732421875
 10
618.150390625
 20
-434.005859375
 10
616.8681640625
 20
-433.8579101562499
 10
617.23828125
 20
-434.091796875
 10
617.4990234375
 20
-434.38134765625
 10
617.6484375
 20
-434.72607421875
 10
617.798828125
 20
-435.0712890625
 10
617.8740234374999
 20
-435.4423828125
 10
617.8740234374999
 20
-435.84033203125
 10
617.8740234374999
 20
-436.64697265625
 10
617.623046875
 20
-437.28564453125
 10
617.1201171875
 20
-437.7553710937499
 10
616.6181640625
 20
-438.22509765625
 10
615.9716796875
 20
-438.4599609374999
 10
615.1806640624999
 20
-438.4599609374999
 10
614.421875
 20
-438.4599609374999
 10
613.75390625
 20
-438.2280273437499
 10
613.177734375
 20
-437.7641601562499
 10
612.6005859374999
 20
-437.3002929687499
 10
612.3124999999999
 20
-436.6157226562499
 10
612.3124999999999
 20
-435.71142578125
 10
612.3124999999999
 20
-434.4912109375
 10
612.8623046875
 20
-433.6494140624999
 10
613.9609375
 20
-433.1855468749999
 10
614.564453125
 20
-432.92822265625
 10
615.3203125
 20
-432.7993164062499
 10
616.228515625
 20
-432.7993164062499
 10
617.2529296875
 20
-432.7993164062499
 10
618.16015625
 20
-432.9536132812499
 10
618.951171875
 20
-433.26123046875
 10
620.2675781249999
 20
-433.7719726562499
 10
620.9267578124999
 20
-434.6376953125
 10
620.9267578124999
 20
-435.85791015625
 10
620.9267578124999
 20
-436.67626953125
 10
620.7119140625
 20
-437.29833984375
 10
620.2832031249999
 20
-437.7231445312499
 10
619.8544921875
 20
-438.14794921875
 10
619.31640625
 20
-438.3603515625
 10
618.6689453125
 20
-438.3603515625
 10
618.6689453125
 20
-438.3603515625
 10
618.6689453125
 20
-437.2963867187499
 10
618.6689453125
 20
-437.2963867187499
 97
        1
330
AD
 75
     2
 76
     1
 98
        1
 10
0.0
 20
0.0
  0
SPLINE
  5
AF
330
A8
100
AcDbEntity
  8
Livello 1
100
AcDbSpline
210
0.0
220
0.0
230
1.0
 70
     9
 71
     3
 72
    74
 73
    70
 74
     0
 42
0.0000000001
 43
0.0000000001
 40
0.0
 40
0.0
 40
0.0
 40
0.0
 40
1.0
 40
1.0
 40
1.0
 40
2.0
 40
2.0
 40
2.0
 40
3.0
 40
3.0
 40
3.0
 40
4.0
 40
4.0
 40
4.0
 40
5.0
 40
5.0
 40
5.0
 40
6.0
 40
6.0
 40
6.0
 40
7.0
 40
7.0
 40
7.0
 40
8.0
 40
8.0
 40
8.0
 40
9.0
 40
9.0
 40
9.0
 40
10.0
 40
10.0
 40
10.0
 40
11.0
 40
11.0
 40
11.0
 40
12.0
 40
12.0
 40
12.0
 40
13.0
 40
13.0
 40
13.0
 40
14.0
 40
14.0
 40
14.0
 40
15.0
 40
15.0
 40
15.0
 40
16.0
 40
16.0
 40
16.0
 40
17.0
 40
17.0
 40
17.0
 40
18.0
 40
18.0
 40
18.0
 40
19.0
 40
19.0
 40
19.0
 40
20.0
 40
20.0
 40
20.0
 40
21.0
 40
21.0
 40
21.0
 40
22.0
 40
22.0
 40
22.0
 40
23.0
 40
23.0
 40
23.0
 40
23.0
 10
618.5634765625
 20
-430.7470703125
 30
0.0
 10
619.1640624999999
 20
-430.6767578125
 30
0.0
 10
619.5791015624999
 20
-430.3984374999999
 30
0.0
 10
619.8095703125
 20
-429.9111328124999
 30
0.0
 10
619.9267578125
 20
-429.6616210937499
 30
0.0
 10
619.984375
 20
-429.3730468749999
 30
0.0
 10
619.984375
 20
-429.04541015625
 30
0.0
 10
619.984375
 20
-428.4218749999999
 30
0.0
 10
619.7861328125
 20
-427.9599609375
 30
0.0
 10
619.3886718749999
 20
-427.6596679687499
 30
0.0
 10
618.9912109375
 20
-427.3593749999999
 30
0.0
 10
618.5498046874999
 20
-427.20947265625
 30
0.0
 10
618.06640625
 20
-427.20947265625
 30
0.0
 10
617.482421875
 20
-427.20947265625
 30
0.0
 10
617.0302734375
 20
-427.3876953124999
 30
0.0
 10
616.7099609375
 20
-427.74462890625
 30
0.0
 10
616.390625
 20
-428.10107421875
 30
0.0
 10
616.2304687499999
 20
-428.52880859375
 30
0.0
 10
616.2304687499999
 20
-429.0278320312499
 30
0.0
 10
616.2304687499999
 20
-429.390625
 30
0.0
 10
616.30078125
 20
-429.70166015625
 30
0.0
 10
616.44140625
 20
-429.96044921875
 30
0.0
 10
616.58203125
 20
-430.2197265624999
 30
0.0
 10
616.7763671874999
 20
-430.44091796875
 30
0.0
 10
617.0263671875
 20
-430.62451171875
 30
0.0
 10
617.0263671875
 20
-430.62451171875
 30
0.0
 10
616.9736328125
 20
-431.53662109375
 30
0.0
 10
616.9736328125
 20
-431.53662109375
 30
0.0
 10
616.9736328125
 20
-431.53662109375
 30
0.0
 10
612.46484375
 20
-430.8989257812499
 30
0.0
 10
612.46484375
 20
-430.8989257812499
 30
0.0
 10
612.46484375
 20
-430.8989257812499
 30
0.0
 10
612.46484375
 20
-426.5488281249999
 30
0.0
 10
612.46484375
 20
-426.5488281249999
 30
0.0
 10
612.46484375
 20
-426.5488281249999
 30
0.0
 10
613.482421875
 20
-426.5488281249999
 30
0.0
 10
613.482421875
 20
-426.5488281249999
 30
0.0
 10
613.482421875
 20
-426.5488281249999
 30
0.0
 10
613.482421875
 20
-430.1098632812499
 30
0.0
 10
613.482421875
 20
-430.1098632812499
 30
0.0
 10
613.482421875
 20
-430.1098632812499
 30
0.0
 10
615.8095703125
 20
-430.46630859375
 30
0.0
 10
615.8095703125
 20
-430.46630859375
 30
0.0
 10
615.6611328124999
 20
-430.271484375
 30
0.0
 10
615.5507812499999
 20
-430.08642578125
 30
0.0
 10
615.4765625
 20
-429.9111328124999
 30
0.0
 10
615.3476562499999
 20
-429.59912109375
 30
0.0
 10
615.283203125
 20
-429.23828125
 30
0.0
 10
615.283203125
 20
-428.8291015625
 30
0.0
 10
615.283203125
 20
-428.06103515625
 30
0.0
 10
615.5312499999999
 20
-427.41015625
 30
0.0
 10
616.0263671875
 20
-426.8759765625
 30
0.0
 10
616.521484375
 20
-426.3417968749999
 30
0.0
 10
617.1484375
 20
-426.0751953125
 30
0.0
 10
617.9091796875
 20
-426.0751953125
 30
0.0
 10
618.7001953124999
 20
-426.0751953125
 30
0.0
 10
619.3984375
 20
-426.31982421875
 30
0.0
 10
620.0019531249999
 20
-426.80859375
 30
0.0
 10
620.6064453125
 20
-427.2983398437499
 30
0.0
 10
620.9091796875
 20
-428.07861328125
 30
0.0
 10
620.9091796875
 20
-429.15087890625
 30
0.0
 10
620.9091796875
 20
-429.8330078124999
 30
0.0
 10
620.716796875
 20
-430.4365234375
 30
0.0
 10
620.3330078125
 20
-430.9604492187499
 30
0.0
 10
619.9492187499999
 20
-431.4848632812499
 30
0.0
 10
619.3593749999999
 20
-431.7783203124999
 30
0.0
 10
618.5634765625
 20
-431.8408203125
 30
0.0
 10
618.5634765625
 20
-431.8408203125
 30
0.0
 10
618.5634765625
 20
-430.7470703125
 30
0.0
 10
618.5634765625
 20
-430.7470703125
 30
0.0
  0
HATCH
  5
B0
330
A8
100
AcDbEntity
  8
Livello 1
 62
   250
100
AcDbHatch
 10
0.0
 20
0.0
 30
0.0
210
0.0
220
0.0
230
1.0
  2
SOLID
 70
     1
 71
     1
 91
        1
 92
        1
 93
        1
 72
     4
 94
        3
 73
     0
 74
     0
 95
       74
 96
       70
 40
0.0
 40
0.0
 40
0.0
 40
0.0
 40
1.0
 40
1.0
 40
1.0
 40
2.0
 40
2.0
 40
2.0
 40
3.0
 40
3.0
 40
3.0
 40
4.0
 40
4.0
 40
4.0
 40
5.0
 40
5.0
 40
5.0
 40
6.0
 40
6.0
 40
6.0
 40
7.0
 40
7.0
 40
7.0
 40
8.0
 40
8.0
 40
8.0
 40
9.0
 40
9.0
 40
9.0
 40
10.0
 40
10.0
 40
10.0
 40
11.0
 40
11.0
 40
11.0
 40
12.0
 40
12.0
 40
12.0
 40
13.0
 40
13.0
 40
13.0
 40
14.0
 40
14.0
 40
14.0
 40
15.0
 40
15.0
 40
15.0
 40
16.0
 40
16.0
 40
16.0
 40
17.0
 40
17.0
 40
17.0
 40
18.0
 40
18.0
 40
18.0
 40
19.0
 40
19.0
 40
19.0
 40
20.0
 40
20.0
 40
20.0
 40
21.0
 40
21.0
 40
21.0
 40
22.0
 40
22.0
 40
22.0
 40
23.0
 40
23.0
 40
23.0
 40
23.0
 10
618.5634765625
 20
-430.7470703125
 10
619.1640624999999
 20
-430.6767578125
 10
619.5791015624999
 20
-430.3984374999999
 10
619.8095703125
 20
-429.9111328124999
 10
619.9267578125
 20
-429.6616210937499
 10
619.984375
 20
-429.3730468749999
 10
619.984375
 20
-429.04541015625
 10
619.984375
 20
-428.4218749999999
 10
619.7861328125
 20
-427.9599609375
 10
619.3886718749999
 20
-427.6596679687499
 10
618.9912109375
 20
-427.3593749999999
 10
618.5498046874999
 20
-427.20947265625
 10
618.06640625
 20
-427.20947265625
 10
617.482421875
 20
-427.20947265625
 10
617.0302734375
 20
-427.3876953124999
 10
616.7099609375
 20
-427.74462890625
 10
616.390625
 20
-428.10107421875
 10
616.2304687499999
 20
-428.52880859375
 10
616.2304687499999
 20
-429.0278320312499
 10
616.2304687499999
 20
-429.390625
 10
616.30078125
 20
-429.70166015625
 10
616.44140625
 20
-429.96044921875
 10
616.58203125
 20
-430.2197265624999
 10
616.7763671874999
 20
-430.44091796875
 10
617.0263671875
 20
-430.62451171875
 10
617.0263671875
 20
-430.62451171875
 10
616.9736328125
 20
-431.53662109375
 10
616.9736328125
 20
-431.53662109375
 10
616.9736328125
 20
-431.53662109375
 10
612.46484375
 20
-430.8989257812499
 10
612.46484375
 20
-430.8989257812499
 10
612.46484375
 20
-430.8989257812499
 10
612.46484375
 20
-426.5488281249999
 10
612.46484375
 20
-426.5488281249999
 10
612.46484375
 20
-426.5488281249999
 10
613.482421875
 20
-426.5488281249999
 10
613.482421875
 20
-426.5488281249999
 10
613.482421875
 20
-426.5488281249999
 10
613.482421875
 20
-430.1098632812499
 10
613.482421875
 20
-430.1098632812499
 10
613.482421875
 20
-430.1098632812499
 10
615.8095703125
 20
-430.46630859375
 10
615.8095703125
 20
-430.46630859375
 10
615.6611328124999
 20
-430.271484375
 10
615.5507812499999
 20
-430.08642578125
 10
615.4765625
 20
-429.9111328124999
 10
615.3476562499999
 20
-429.59912109375
 10
615.283203125
 20
-429.23828125
 10
615.283203125
 20
-428.8291015625
 10
615.283203125
 20
-428.06103515625
 10
615.5312499999999
 20
-427.41015625
 10
616.0263671875
 20
-426.8759765625
 10
616.521484375
 20
-426.3417968749999
 10
617.1484375
 20
-426.0751953125
 10
617.9091796875
 20
-426.0751953125
 10
618.7001953124999
 20
-426.0751953125
 10
619.3984375
 20
-426.31982421875
 10
620.0019531249999
 20
-426.80859375
 10
620.6064453125
 20
-427.2983398437499
 10
620.9091796875
 20
-428.07861328125
 10
620.9091796875
 20
-429.15087890625
 10
620.9091796875
 20
-429.8330078124999
 10
620.716796875
 20
-430.4365234375
 10
620.3330078125
 20
-430.9604492187499
 10
619.9492187499999
 20
-431.4848632812499
 10
619.3593749999999
 20
-431.7783203124999
 10
618.5634765625
 20
-431.8408203125
 10
618.5634765625
 20
-431.8408203125
 10
618.5634765625
 20
-430.7470703125
 10
618.5634765625
 20
-430.7470703125
 97
        1
330
AF
 75
     2
 76
     1
 98
        1
 10
0.0
 20
0.0
  0
ENDBLK
  5
AB
330
A8
100
AcDbEntity
  8
0
100
AcDbBlockEnd
  0
BLOCK
  5
B5
330
B3
100
AcDbEntity
  8
0
100
AcDbBlockBegin
  2
Block_5
 70
     0
 10
0.0
 20
0.0
 30
0.0
  3
Block_5
  1

  0
INSERT
  5
B8
330
B3
100
AcDbEntity
  8
Livello 1
100
AcDbBlockReference
  2
Block_6
 10
0.0
 20
0.0
 30
0.0
  0
ENDBLK
  5
B6
330
B3
100
AcDbEntity
  8
0
100
AcDbBlockEnd
  0
BLOCK
  5
B9
330
B7
100
AcDbEntity
  8
0
100
AcDbBlockBegin
  2
Block_6
 70
     0
 10
0.0
 20
0.0
 30
0.0
  3
Block_6
  1

  0
LINE
  5
BB
330
B7
100
AcDbEntity
  8
Livello 1
 62
   250
370
    30
100
AcDbLine
 10
836.7906494140624
 20
-559.276611328125
 30
0.0
 11
656.2783813476563
 21
-558.9101562499999
 31
0.0
  0
LWPOLYLINE
  5
BC
330
B7
100
AcDbEntity
  8
Livello 1
100
AcDbPolyline
 90
        3
 70
     1
 43
0.0
 10
835.7659301757813
 20
-555.7480468749999
 10
841.8654785156249
 20
-559.2865600585937
 10
835.7516479492186
 20
-562.8006591796874
  0
HATCH
  5
BD
330
B7
100
AcDbEntity
  8
Livello 1
 62
   250
100
AcDbHatch
 10
0.0
 20
0.0
 30
0.0
210
0.0
220
0.0
230
1.0
  2
SOLID
 70
     1
 71
     1
 91
        1
 92
        1
 93
        3
 72
     1
 10
835.7659301757813
 20
-555.7480468749999
 11
841.8654785156249
 21
-559.2865600585937
 72
     1
 10
841.8654785156249
 20
-559.2865600585937
 11
835.7516479492186
 21
-562.8006591796874
 72
     1
 10
835.7516479492186
 20
-562.8006591796874
 11
835.7659301757813
 21
-555.7480468749999
 97
        1
330
BC
 75
     2
 76
     1
 98
        1
 10
0.0
 20
0.0
  0
LWPOLYLINE
  5
BE
330
B7
100
AcDbEntity
  8
Livello 1
100
AcDbPolyline
 90
        3
 70
     1
 43
0.0
 10
657.3173828125
 20
-555.3858032226562
 10
651.2034912109375
 20
-558.8995361328125
 10
657.3030395507812
 20
-562.4384155273437
  0
HATCH
  5
BF
330
B7
100
AcDbEntity
  8
Livello 1
 62
   250
100
AcDbHatch
 10
0.0
 20
0.0
 30
0.0
210
0.0
220
0.0
230
1.0
  2
SOLID
 70
     1
 71
     1
 91
        1
 92
        1
 93
        3
 72
     1
 10
657.3173828125
 20
-555.3858032226562
 11
651.2034912109375
 21
-558.8995361328125
 72
     1
 10
651.2034912109375
 20
-558.8995361328125
 11
657.3030395507812
 21
-562.4384155273437
 72
     1
 10
657.3030395507812
 20
-562.4384155273437
 11
657.3173828125
 21
-555.3858032226562
 97
        1
330
BE
 75
     2
 76
     1
 98
        1
 10
0.0
 20
0.0
  0
ENDBLK
  5
BA
330
B7
100
AcDbEntity
  8
0
100
AcDbBlockEnd
  0
BLOCK
  5
C2
330
C0
100
AcDbEntity
  8
0
100
AcDbBlockBegin
  2
Block_7
 70
     0
 10
0.0
 20
0.0
 30
0.0
  3
Block_7
  1

  0
INSERT
  5
C5
330
C0
100
AcDbEntity
  8
Livello 1
100
AcDbBlockReference
  2
Block_8
 10
0.0
 20
0.0
 30
0.0
  0
ENDBLK
  5
C3
330
C0
100
AcDbEntity
  8
0
100
AcDbBlockEnd
  0
BLOCK
  5
C6
330
C4
100
AcDbEntity
  8
0
100
AcDbBlockBegin
  2
Block_8
 70
     0
 10
0.0
 20
0.0
 30
0.0
  3
Block_8
  1

  0
SPLINE
  5
C8
330
C4
100
AcDbEntity
  8
Livello 1
100
AcDbSpline
210
0.0
220
0.0
230
1.0
 70
    11
 71
     3
 72
    38
 73
    34
 74
     0
 42
0.0000000001
 43
0.0000000001
 40
0.0
 40
0.0
 40
0.0
 40
0.0
 40
1.0
 40
1.0
 40
1.0
 40
2.0
 40
2.0
 40
2.0
 40
3.0
 40
3.0
 40
3.0
 40
4.0
 40
4.0
 40
4.0
 40
5.0
 40
5.0
 40
5.0
 40
6.0
 40
6.0
 40
6.0
 40
7.0
 40
7.0
 40
7.0
 40
8.0
 40
8.0
 40
8.0
 40
9.0
 40
9.0
 40
9.0
 40
10.0
 40
10.0
 40
10.0
 40
11.0
 40
11.0
 40
11.0
 40
11.0
 10
746.13671875
 20
-565.8779296875
 30
0.0
 10
746.13671875
 20
-565.8779296875
 30
0.0
 10
746.13671875
 20
-566.7958984374999
 30
0.0
 10
746.13671875
 20
-566.7958984374999
 30
0.0
 10
745.8681640625
 20
-567.0576171875
 30
0.0
 10
745.509765625
 20
-567.5117187499999
 30
0.0
 10
745.0634765624999
 20
-568.158203125
 30
0.0
 10
744.6171875
 20
-568.8056640624999
 30
0.0
 10
744.22265625
 20
-569.50390625
 30
0.0
 10
743.8798828124999
 20
-570.251953125
 30
0.0
 10
743.5400390625
 20
-570.9814453125
 30
0.0
 10
743.283203125
 20
-571.6455078125
 30
0.0
 10
743.107421875
 20
-572.24609375
 30
0.0
 10
742.994140625
 20
-572.6318359375
 30
0.0
 10
742.8486328125
 20
-573.2539062499999
 30
0.0
 10
742.6689453125
 20
-574.111328125
 30
0.0
 10
742.6689453125
 20
-574.111328125
 30
0.0
 10
741.505859375
 20
-574.111328125
 30
0.0
 10
741.505859375
 20
-574.111328125
 30
0.0
 10
741.7705078125
 20
-572.5126953124999
 30
0.0
 10
742.35546875
 20
-570.9228515625
 30
0.0
 10
743.259765625
 20
-569.3398437499999
 30
0.0
 10
743.7939453124999
 20
-568.4121093749999
 30
0.0
 10
744.3554687499999
 20
-567.611328125
 30
0.0
 10
744.943359375
 20
-566.9365234375
 30
0.0
 10
744.943359375
 20
-566.9365234375
 30
0.0
 10
740.3125
 20
-566.9365234375
 30
0.0
 10
740.3125
 20
-566.9365234375
 30
0.0
 10
740.3125
 20
-566.9365234375
 30
0.0
 10
740.3125
 20
-565.8779296875
 30
0.0
 10
740.3125
 20
-565.8779296875
 30
0.0
 10
740.3125
 20
-565.8779296875
 30
0.0
 10
746.13671875
 20
-565.8779296875
 30
0.0
 10
746.13671875
 20
-565.8779296875
 30
0.0
  0
HATCH
  5
C9
330
C4
100
AcDbEntity
  8
Livello 1
 62
   250
100
AcDbHatch
 10
0.0
 20
0.0
 30
0.0
210
0.0
220
0.0
230
1.0
  2
SOLID
 70
     1
 71
     1
 91
        1
 92
        1
 93
        1
 72
     4
 94
        3
 73
     0
 74
     0
 95
       38
 96
       34
 40
0.0
 40
0.0
 40
0.0
 40
0.0
 40
1.0
 40
1.0
 40
1.0
 40
2.0
 40
2.0
 40
2.0
 40
3.0
 40
3.0
 40
3.0
 40
4.0
 40
4.0
 40
4.0
 40
5.0
 40
5.0
 40
5.0
 40
6.0
 40
6.0
 40
6.0
 40
7.0
 40
7.0
 40
7.0
 40
8.0
 40
8.0
 40
8.0
 40
9.0
 40
9.0
 40
9.0
 40
10.0
 40
10.0
 40
10.0
 40
11.0
 40
11.0
 40
11.0
 40
11.0
 10
746.13671875
 20
-565.8779296875
 10
746.13671875
 20
-565.8779296875
 10
746.13671875
 20
-566.7958984374999
 10
746.13671875
 20
-566.7958984374999
 10
745.8681640625
 20
-567.0576171875
 10
745.509765625
 20
-567.5117187499999
 10
745.0634765624999
 20
-568.158203125
 10
744.6171875
 20
-568.8056640624999
 10
744.22265625
 20
-569.50390625
 10
743.8798828124999
 20
-570.251953125
 10
743.5400390625
 20
-570.9814453125
 10
743.283203125
 20
-571.6455078125
 10
743.107421875
 20
-572.24609375
 10
742.994140625
 20
-572.6318359375
 10
742.8486328125
 20
-573.2539062499999
 10
742.6689453125
 20
-574.111328125
 10
742.6689453125
 20
-574.111328125
 10
741.505859375
 20
-574.111328125
 10
741.505859375
 20
-574.111328125
 10
741.7705078125
 20
-572.5126953124999
 10
742.35546875
 20
-570.9228515625
 10
743.259765625
 20
-569.3398437499999
 10
743.7939453124999
 20
-568.4121093749999
 10
744.3554687499999
 20
-567.611328125
 10
744.943359375
 20
-566.9365234375
 10
744.943359375
 20
-566.9365234375
 10
740.3125
 20
-566.9365234375
 10
740.3125
 20
-566.9365234375
 10
740.3125
 20
-566.9365234375
 10
740.3125
 20
-565.8779296875
 10
740.3125
 20
-565.8779296875
 10
740.3125
 20
-565.8779296875
 10
746.13671875
 20
-565.8779296875
 10
746.13671875
 20
-565.8779296875
 97
        1
330
C8
 75
     2
 76
     1
 98
        1
 10
0.0
 20
0.0
  0
SPLINE
  5
CA
330
C4
100
AcDbEntity
  8
Livello 1
100
AcDbSpline
210
0.0
220
0.0
230
1.0
 70
    11
 71
     3
 72
    29
 73
    25
 74
     0
 42
0.0000000001
 43
0.0000000001
 40
0.0
 40
0.0
 40
0.0
 40
0.0
 40
1.0
 40
1.0
 40
1.0
 40
2.0
 40
2.0
 40
2.0
 40
3.0
 40
3.0
 40
3.0
 40
4.0
 40
4.0
 40
4.0
 40
5.0
 40
5.0
 40
5.0
 40
6.0
 40
6.0
 40
6.0
 40
7.0
 40
7.0
 40
7.0
 40
8.0
 40
8.0
 40
8.0
 40
8.0
 10
747.6806640625
 20
-568.181640625
 30
0.0
 10
747.6806640625
 20
-568.181640625
 30
0.0
 10
747.6806640625
 20
-567.375
 30
0.0
 10
747.6806640625
 20
-567.375
 30
0.0
 10
748.4404296874999
 20
-567.3007812499999
 30
0.0
 10
748.970703125
 20
-567.1767578125
 30
0.0
 10
749.2705078124999
 20
-567.0039062499999
 30
0.0
 10
749.5712890625
 20
-566.830078125
 30
0.0
 10
749.794921875
 20
-566.419921875
 30
0.0
 10
749.943359375
 20
-565.7724609375
 30
0.0
 10
749.943359375
 20
-565.7724609375
 30
0.0
 10
750.7734375
 20
-565.7724609375
 30
0.0
 10
750.7734375
 20
-565.7724609375
 30
0.0
 10
750.7734375
 20
-565.7724609375
 30
0.0
 10
750.7734375
 20
-574.111328125
 30
0.0
 10
750.7734375
 20
-574.111328125
 30
0.0
 10
750.7734375
 20
-574.111328125
 30
0.0
 10
749.6513671875
 20
-574.111328125
 30
0.0
 10
749.6513671875
 20
-574.111328125
 30
0.0
 10
749.6513671875
 20
-574.111328125
 30
0.0
 10
749.6513671875
 20
-568.181640625
 30
0.0
 10
749.6513671875
 20
-568.181640625
 30
0.0
 10
749.6513671875
 20
-568.181640625
 30
0.0
 10
747.6806640625
 20
-568.181640625
 30
0.0
 10
747.6806640625
 20
-568.181640625
 30
0.0
  0
HATCH
  5
CB
330
C4
100
AcDbEntity
  8
Livello 1
 62
   250
100
AcDbHatch
 10
0.0
 20
0.0
 30
0.0
210
0.0
220
0.0
230
1.0
  2
SOLID
 70
     1
 71
     1
 91
        1
 92
        1
 93
        1
 72
     4
 94
        3
 73
     0
 74
     0
 95
       29
 96
       25
 40
0.0
 40
0.0
 40
0.0
 40
0.0
 40
1.0
 40
1.0
 40
1.0
 40
2.0
 40
2.0
 40
2.0
 40
3.0
 40
3.0
 40
3.0
 40
4.0
 40
4.0
 40
4.0
 40
5.0
 40
5.0
 40
5.0
 40
6.0
 40
6.0
 40
6.0
 40
7.0
 40
7.0
 40
7.0
 40
8.0
 40
8.0
 40
8.0
 40
8.0
 10
747.6806640625
 20
-568.181640625
 10
747.6806640625
 20
-568.181640625
 10
747.6806640625
 20
-567.375
 10
747.6806640625
 20
-567.375
 10
748.4404296874999
 20
-567.3007812499999
 10
748.970703125
 20
-567.1767578125
 10
749.2705078124999
 20
-567.0039062499999
 10
749.5712890625
 20
-566.830078125
 10
749.794921875
 20
-566.419921875
 10
749.943359375
 20
-565.7724609375
 10
749.943359375
 20
-565.7724609375
 10
750.7734375
 20
-565.7724609375
 10
750.7734375
 20
-565.7724609375
 10
750.7734375
 20
-565.7724609375
 10
750.7734375
 20
-574.111328125
 10
750.7734375
 20
-574.111328125
 10
750.7734375
 20
-574.111328125
 10
749.6513671875
 20
-574.111328125
 10
749.6513671875
 20
-574.111328125
 10
749.6513671875
 20
-574.111328125
 10
749.6513671875
 20
-568.181640625
 10
749.6513671875
 20
-568.181640625
 10
749.6513671875
 20
-568.181640625
 10
747.6806640625
 20
-568.181640625
 10
747.6806640625
 20
-568.181640625
 97
        1
330
CA
 75
     2
 76
     1
 98
        1
 10
0.0
 20
0.0
  0
ENDBLK
  5
C7
330
C4
100
AcDbEntity
  8
0
100
AcDbBlockEnd
  0
BLOCK
  5
D0
330
CE
100
AcDbEntity
  8
0
100
AcDbBlockBegin
  2
Block_9
 70
     0
 10
0.0
 20
0.0
 30
0.0
  3
Block_9
  1

  0
INSERT
  5
D3
330
CE
100
AcDbEntity
  8
Livello 1
100
AcDbBlockReference
  2
Block_10
 10
0.0
 20
0.0
 30
0.0
  0
ENDBLK
  5
D1
330
CE
100
AcDbEntity
  8
0
100
AcDbBlockEnd
  0
BLOCK
  5
D4
330
D2
100
AcDbEntity
  8
0
100
AcDbBlockBegin
  2
Block_10
 70
     0
 10
0.0
 20
0.0
 30
0.0
  3
Block_10
  1

  0
LINE
  5
D6
330
D2
100
AcDbEntity
  8
Livello 1
 62
   250
370
    30
100
AcDbLine
 10
980.4430541992187
 20
-559.2716674804687
 30
0.0
 11
861.7885131835937
 21
-558.9151000976563
 31
0.0
  0
LWPOLYLINE
  5
D7
330
D2
100
AcDbEntity
  8
Livello 1
100
AcDbPolyline
 90
        3
 70
     1
 43
0.0
 10
979.4218139648437
 20
-555.7421264648437
 10
985.5179443359375
 20
-559.2865600585937
 10
979.400634765625
 20
-562.7946777343749
  0
HATCH
  5
D8
330
D2
100
AcDbEntity
  8
Livello 1
 62
   250
100
AcDbHatch
 10
0.0
 20
0.0
 30
0.0
210
0.0
220
0.0
230
1.0
  2
SOLID
 70
     1
 71
     1
 91
        1
 92
        1
 93
        3
 72
     1
 10
979.4218139648437
 20
-555.7421264648437
 11
985.5179443359375
 21
-559.2865600585937
 72
     1
 10
985.5179443359375
 20
-559.2865600585937
 11
979.400634765625
 21
-562.7946777343749
 72
     1
 10
979.400634765625
 20
-562.7946777343749
 11
979.4218139648437
 21
-555.7421264648437
 97
        1
330
D7
 75
     2
 76
     1
 98
        1
 10
0.0
 20
0.0
  0
LWPOLYLINE
  5
D9
330
D2
100
AcDbEntity
  8
Livello 1
100
AcDbPolyline
 90
        3
 70
     1
 43
0.0
 10
862.8309326171875
 20
-555.3917846679687
 10
856.7136230468749
 20
-558.8995361328125
 10
862.8097534179687
 20
-562.4443359375
  0
HATCH
  5
DA
330
D2
100
AcDbEntity
  8
Livello 1
 62
   250
100
AcDbHatch
 10
0.0
 20
0.0
 30
0.0
210
0.0
220
0.0
230
1.0
  2
SOLID
 70
     1
 71
     1
 91
        1
 92
        1
 93
        3
 72
     1
 10
862.8309326171875
 20
-555.3917846679687
 11
856.7136230468749
 21
-558.8995361328125
 72
     1
 10
856.7136230468749
 20
-558.8995361328125
 11
862.8097534179687
 21
-562.4443359375
 72
     1
 10
862.8097534179687
 20
-562.4443359375
 11
862.8309326171875
 21
-555.3917846679687
 97
        1
330
D9
 75
     2
 76
     1
 98
        1
 10
0.0
 20
0.0
  0
ENDBLK
  5
D5
330
D2
100
AcDbEntity
  8
0
100
AcDbBlockEnd
  0
BLOCK
  5
DD
330
DB
100
AcDbEntity
  8
0
100
AcDbBlockBegin
  2
Block_11
 70
     0
 10
0.0
 20
0.0
 30
0.0
  3
Block_11
  1

  0
INSERT
  5
E0
330
DB
100
AcDbEntity
  8
Livello 1
100
AcDbBlockReference
  2
Block_12
 10
0.0
 20
0.0
 30
0.0
  0
ENDBLK
  5
DE
330
DB
100
AcDbEntity
  8
0
100
AcDbBlockEnd
  0
BLOCK
  5
E1
330
DF
100
AcDbEntity
  8
0
100
AcDbBlockBegin
  2
Block_12
 70
     0
 10
0.0
 20
0.0
 30
0.0
  3
Block_12
  1

  0
SPLINE
  5
E3
330
DF
100
AcDbEntity
  8
Livello 1
100
AcDbSpline
210
0.0
220
0.0
230
1.0
 70
     9
 71
     3
 72
    29
 73
    25
 74
     0
 42
0.0000000001
 43
0.0000000001
 40
0.0
 40
0.0
 40
0.0
 40
0.0
 40
1.0
 40
1.0
 40
1.0
 40
2.0
 40
2.0
 40
2.0
 40
3.0
 40
3.0
 40
3.0
 40
4.0
 40
4.0
 40
4.0
 40
5.0
 40
5.0
 40
5.0
 40
6.0
 40
6.0
 40
6.0
 40
7.0
 40
7.0
 40
7.0
 40
8.0
 40
8.0
 40
8.0
 40
8.0
 10
919.125
 20
-572.8339843749999
 30
0.0
 10
919.4003906249999
 20
-572.4609375
 30
0.0
 10
919.5371093749999
 20
-572.021484375
 30
0.0
 10
919.5371093749999
 20
-571.5146484375
 30
0.0
 10
919.5371093749999
 20
-571.0859375
 30
0.0
 10
919.4150390624999
 20
-570.6777343749999
 30
0.0
 10
919.1689453125
 20
-570.2900390625
 30
0.0
 10
918.923828125
 20
-569.90234375
 30
0.0
 10
918.4775390625
 20
-569.7080078125
 30
0.0
 10
917.8300781249999
 20
-569.7080078125
 30
0.0
 10
917.3779296875
 20
-569.7080078125
 30
0.0
 10
916.9814453124999
 20
-569.8583984375
 30
0.0
 10
916.6396484374999
 20
-570.158203125
 30
0.0
 10
916.2988281249999
 20
-570.458984375
 30
0.0
 10
916.1289062499999
 20
-570.9111328125
 30
0.0
 10
916.1289062499999
 20
-571.5146484375
 30
0.0
 10
916.1289062499999
 20
-572.0449218749999
 30
0.0
 10
916.2832031249999
 20
-572.490234375
 30
0.0
 10
916.59375
 20
-572.8515625
 30
0.0
 10
916.9033203125
 20
-573.2119140625
 30
0.0
 10
917.3330078124999
 20
-573.3916015624999
 30
0.0
 10
917.8828125
 20
-573.3916015624999
 30
0.0
 10
918.4365234375
 20
-573.3916015624999
 30
0.0
 10
918.8505859375
 20
-573.2060546875
 30
0.0
 10
919.125
 20
-572.8339843749999
 30
0.0
  0
SPLINE
  5
E4
330
DF
100
AcDbEntity
  8
Livello 1
100
AcDbSpline
210
0.0
220
0.0
230
1.0
 70
     9
 71
     3
 72
    56
 73
    52
 74
     0
 42
0.0000000001
 43
0.0000000001
 40
0.0
 40
0.0
 40
0.0
 40
0.0
 40
1.0
 40
1.0
 40
1.0
 40
2.0
 40
2.0
 40
2.0
 40
3.0
 40
3.0
 40
3.0
 40
4.0
 40
4.0
 40
4.0
 40
5.0
 40
5.0
 40
5.0
 40
6.0
 40
6.0
 40
6.0
 40
7.0
 40
7.0
 40
7.0
 40
8.0
 40
8.0
 40
8.0
 40
9.0
 40
9.0
 40
9.0
 40
10.0
 40
10.0
 40
10.0
 40
11.0
 40
11.0
 40
11.0
 40
12.0
 40
12.0
 40
12.0
 40
13.0
 40
13.0
 40
13.0
 40
14.0
 40
14.0
 40
14.0
 40
15.0
 40
15.0
 40
15.0
 40
16.0
 40
16.0
 40
16.0
 40
17.0
 40
17.0
 40
17.0
 40
17.0
 10
919.9150390625
 20
-566.4306640625
 30
0.0
 10
920.283203125
 20
-566.916015625
 30
0.0
 10
920.4677734375
 20
-567.416015625
 30
0.0
 10
920.4677734375
 20
-567.9306640624999
 30
0.0
 10
920.4677734375
 20
-567.9306640624999
 30
0.0
 10
919.4267578125
 20
-567.9306640624999
 30
0.0
 10
919.4267578125
 20
-567.9306640624999
 30
0.0
 10
919.3642578125
 20
-567.599609375
 30
0.0
 10
919.2646484375
 20
-567.33984375
 30
0.0
 10
919.1279296875
 20
-567.15234375
 30
0.0
 10
918.875
 20
-566.8017578125
 30
0.0
 10
918.4912109375
 20
-566.626953125
 30
0.0
 10
917.9765624999999
 20
-566.626953125
 30
0.0
 10
917.3876953125001
 20
-566.626953125
 30
0.0
 10
916.919921875
 20
-566.8984374999999
 30
0.0
 10
916.5732421875
 20
-567.4423828124999
 30
0.0
 10
916.2255859374999
 20
-567.986328125
 30
0.0
 10
916.033203125
 20
-568.7646484375
 30
0.0
 10
915.994140625
 20
-569.7783203124999
 30
0.0
 10
916.2353515625
 20
-569.423828125
 30
0.0
 10
916.5400390625
 20
-569.158203125
 30
0.0
 10
916.90625
 20
-568.9833984375
 30
0.0
 10
917.2412109375001
 20
-568.8271484374999
 30
0.0
 10
917.615234375
 20
-568.7490234374999
 30
0.0
 10
918.029296875
 20
-568.7490234374999
 30
0.0
 10
918.7304687500001
 20
-568.7490234374999
 30
0.0
 10
919.3427734374999
 20
-568.9736328124999
 30
0.0
 10
919.865234375
 20
-569.421875
 30
0.0
 10
920.3876953125
 20
-569.8701171875
 30
0.0
 10
920.6484375
 20
-570.5380859375
 30
0.0
 10
920.6484375
 20
-571.427734375
 30
0.0
 10
920.6484375
 20
-572.1874999999999
 30
0.0
 10
920.4013671874999
 20
-572.861328125
 30
0.0
 10
919.90625
 20
-573.447265625
 30
0.0
 10
919.4111328125
 20
-574.0341796874999
 30
0.0
 10
918.705078125
 20
-574.3281249999999
 30
0.0
 10
917.7890624999999
 20
-574.3281249999999
 30
0.0
 10
917.0058593749999
 20
-574.3281249999999
 30
0.0
 10
916.3291015625
 20
-574.0302734374999
 30
0.0
 10
915.759765625
 20
-573.435546875
 30
0.0
 10
915.1904296875001
 20
-572.841796875
 30
0.0
 10
914.9062499999999
 20
-571.8408203125
 30
0.0
 10
914.9062499999999
 20
-570.4335937499999
 30
0.0
 10
914.9062499999999
 20
-569.3925781249999
 30
0.0
 10
915.033203125
 20
-568.5097656249999
 30
0.0
 10
915.2861328125
 20
-567.7841796874999
 30
0.0
 10
915.7734375
 20
-566.396484375
 30
0.0
 10
916.6640624999999
 20
-565.7021484374999
 30
0.0
 10
917.9589843749999
 20
-565.7021484374999
 30
0.0
 10
918.8945312499999
 20
-565.7021484374999
 30
0.0
 10
919.5458984374999
 20
-565.9453124999999
 30
0.0
 10
919.9150390625
 20
-566.4306640625
 30
0.0
  0
HATCH
  5
E5
330
DF
100
AcDbEntity
  8
Livello 1
 62
   250
100
AcDbHatch
 10
0.0
 20
0.0
 30
0.0
210
0.0
220
0.0
230
1.0
  2
SOLID
 70
     1
 71
     1
 91
        2
 92
        1
 93
        1
 72
     4
 94
        3
 73
     0
 74
     0
 95
       29
 96
       25
 40
0.0
 40
0.0
 40
0.0
 40
0.0
 40
1.0
 40
1.0
 40
1.0
 40
2.0
 40
2.0
 40
2.0
 40
3.0
 40
3.0
 40
3.0
 40
4.0
 40
4.0
 40
4.0
 40
5.0
 40
5.0
 40
5.0
 40
6.0
 40
6.0
 40
6.0
 40
7.0
 40
7.0
 40
7.0
 40
8.0
 40
8.0
 40
8.0
 40
8.0
 10
919.125
 20
-572.8339843749999
 10
919.4003906249999
 20
-572.4609375
 10
919.5371093749999
 20
-572.021484375
 10
919.5371093749999
 20
-571.5146484375
 10
919.5371093749999
 20
-571.0859375
 10
919.4150390624999
 20
-570.6777343749999
 10
919.1689453125
 20
-570.2900390625
 10
918.923828125
 20
-569.90234375
 10
918.4775390625
 20
-569.7080078125
 10
917.8300781249999
 20
-569.7080078125
 10
917.3779296875
 20
-569.7080078125
 10
916.9814453124999
 20
-569.8583984375
 10
916.6396484374999
 20
-570.158203125
 10
916.2988281249999
 20
-570.458984375
 10
916.1289062499999
 20
-570.9111328125
 10
916.1289062499999
 20
-571.5146484375
 10
916.1289062499999
 20
-572.0449218749999
 10
916.2832031249999
 20
-572.490234375
 10
916.59375
 20
-572.8515625
 10
916.9033203125
 20
-573.2119140625
 10
917.3330078124999
 20
-573.3916015624999
 10
917.8828125
 20
-573.3916015624999
 10
918.4365234375
 20
-573.3916015624999
 10
918.8505859375
 20
-573.2060546875
 10
919.125
 20
-572.8339843749999
 97
        1
330
E3
 92
        1
 93
        1
 72
     4
 94
        3
 73
     0
 74
     0
 95
       56
 96
       52
 40
0.0
 40
0.0
 40
0.0
 40
0.0
 40
1.0
 40
1.0
 40
1.0
 40
2.0
 40
2.0
 40
2.0
 40
3.0
 40
3.0
 40
3.0
 40
4.0
 40
4.0
 40
4.0
 40
5.0
 40
5.0
 40
5.0
 40
6.0
 40
6.0
 40
6.0
 40
7.0
 40
7.0
 40
7.0
 40
8.0
 40
8.0
 40
8.0
 40
9.0
 40
9.0
 40
9.0
 40
10.0
 40
10.0
 40
10.0
 40
11.0
 40
11.0
 40
11.0
 40
12.0
 40
12.0
 40
12.0
 40
13.0
 40
13.0
 40
13.0
 40
14.0
 40
14.0
 40
14.0
 40
15.0
 40
15.0
 40
15.0
 40
16.0
 40
16.0
 40
16.0
 40
17.0
 40
17.0
 40
17.0
 40
17.0
 10
919.9150390625
 20
-566.4306640625
 10
920.283203125
 20
-566.916015625
 10
920.4677734375
 20
-567.416015625
 10
920.4677734375
 20
-567.9306640624999
 10
920.4677734375
 20
-567.9306640624999
 10
919.4267578125
 20
-567.9306640624999
 10
919.4267578125
 20
-567.9306640624999
 10
919.3642578125
 20
-567.599609375
 10
919.2646484375
 20
-567.33984375
 10
919.1279296875
 20
-567.15234375
 10
918.875
 20
-566.8017578125
 10
918.4912109375
 20
-566.626953125
 10
917.9765624999999
 20
-566.626953125
 10
917.3876953125001
 20
-566.626953125
 10
916.919921875
 20
-566.8984374999999
 10
916.5732421875
 20
-567.4423828124999
 10
916.2255859374999
 20
-567.986328125
 10
916.033203125
 20
-568.7646484375
 10
915.994140625
 20
-569.7783203124999
 10
916.2353515625
 20
-569.423828125
 10
916.5400390625
 20
-569.158203125
 10
916.90625
 20
-568.9833984375
 10
917.2412109375001
 20
-568.8271484374999
 10
917.615234375
 20
-568.7490234374999
 10
918.029296875
 20
-568.7490234374999
 10
918.7304687500001
 20
-568.7490234374999
 10
919.3427734374999
 20
-568.9736328124999
 10
919.865234375
 20
-569.421875
 10
920.3876953125
 20
-569.8701171875
 10
920.6484375
 20
-570.5380859375
 10
920.6484375
 20
-571.427734375
 10
920.6484375
 20
-572.1874999999999
 10
920.4013671874999
 20
-572.861328125
 10
919.90625
 20
-573.447265625
 10
919.4111328125
 20
-574.0341796874999
 10
918.705078125
 20
-574.3281249999999
 10
917.7890624999999
 20
-574.3281249999999
 10
917.0058593749999
 20
-574.3281249999999
 10
916.3291015625
 20
-574.0302734374999
 10
915.759765625
 20
-573.435546875
 10
915.1904296875001
 20
-572.841796875
 10
914.9062499999999
 20
-571.8408203125
 10
914.9062499999999
 20
-570.4335937499999
 10
914.9062499999999
 20
-569.3925781249999
 10
915.033203125
 20
-568.5097656249999
 10
915.2861328125
 20
-567.7841796874999
 10
915.7734375
 20
-566.396484375
 10
916.6640624999999
 20
-565.7021484374999
 10
917.9589843749999
 20
-565.7021484374999
 10
918.8945312499999
 20
-565.7021484374999
 10
919.5458984374999
 20
-565.9453124999999
 10
919.9150390625
 20
-566.4306640625
 97
        1
330
E4
 75
     2
 76
     1
 98
        1
 10
0.0
 20
0.0
  0
SPLINE
  5
E6
330
DF
100
AcDbEntity
  8
Livello 1
100
AcDbSpline
210
0.0
220
0.0
230
1.0
 70
    11
 71
     3
 72
    29
 73
    25
 74
     0
 42
0.0000000001
 43
0.0000000001
 40
0.0
 40
0.0
 40
0.0
 40
0.0
 40
1.0
 40
1.0
 40
1.0
 40
2.0
 40
2.0
 40
2.0
 40
3.0
 40
3.0
 40
3.0
 40
4.0
 40
4.0
 40
4.0
 40
5.0
 40
5.0
 40
5.0
 40
6.0
 40
6.0
 40
6.0
 40
7.0
 40
7.0
 40
7.0
 40
8.0
 40
8.0
 40
8.0
 40
8.0
 10
925.6474609375
 20
-572.6552734374999
 30
0.0
 10
925.9716796875
 20
-572.1718749999999
 30
0.0
 10
926.1337890625
 20
-571.2714843749999
 30
0.0
 10
926.1337890625
 20
-569.9541015624999
 30
0.0
 10
926.1337890625
 20
-569.0029296875
 30
0.0
 10
926.0166015624999
 20
-568.2197265624999
 30
0.0
 10
925.7822265625
 20
-567.6064453124999
 30
0.0
 10
925.5478515625
 20
-566.9921875
 30
0.0
 10
925.0927734375
 20
-566.6845703125
 30
0.0
 10
924.4169921875
 20
-566.6845703125
 30
0.0
 10
923.7958984375
 20
-566.6845703125
 30
0.0
 10
923.3427734375
 20
-566.9765625
 30
0.0
 10
923.0556640625
 20
-567.5595703125
 30
0.0
 10
922.7685546874999
 20
-568.1416015625
 30
0.0
 10
922.625
 20
-569.0009765624999
 30
0.0
 10
922.625
 20
-570.134765625
 30
0.0
 10
922.625
 20
-570.98828125
 30
0.0
 10
922.716796875
 20
-571.6748046874999
 30
0.0
 10
922.900390625
 20
-572.193359375
 30
0.0
 10
923.181640625
 20
-572.9843749999999
 30
0.0
 10
923.6611328125
 20
-573.380859375
 30
0.0
 10
924.3408203125
 20
-573.380859375
 30
0.0
 10
924.8876953125
 20
-573.380859375
 30
0.0
 10
925.3232421874999
 20
-573.138671875
 30
0.0
 10
925.6474609375
 20
-572.6552734374999
 30
0.0
  0
SPLINE
  5
E7
330
DF
100
AcDbEntity
  8
Livello 1
100
AcDbSpline
210
0.0
220
0.0
230
1.0
 70
     9
 71
     3
 72
    29
 73
    25
 74
     0
 42
0.0000000001
 43
0.0000000001
 40
0.0
 40
0.0
 40
0.0
 40
0.0
 40
1.0
 40
1.0
 40
1.0
 40
2.0
 40
2.0
 40
2.0
 40
3.0
 40
3.0
 40
3.0
 40
4.0
 40
4.0
 40
4.0
 40
5.0
 40
5.0
 40
5.0
 40
6.0
 40
6.0
 40
6.0
 40
7.0
 40
7.0
 40
7.0
 40
8.0
 40
8.0
 40
8.0
 40
8.0
 10
926.7060546874999
 20
-567.0771484374999
 30
0.0
 10
927.0810546874999
 20
-567.7666015625
 30
0.0
 10
927.2675781249999
 20
-568.7119140624999
 30
0.0
 10
927.2675781249999
 20
-569.9130859374999
 30
0.0
 10
927.2675781249999
 20
-571.05078125
 30
0.0
 10
927.0986328124999
 20
-571.9921874999999
 30
0.0
 10
926.7587890625
 20
-572.7373046874999
 30
0.0
 10
926.2675781249999
 20
-573.8056640625
 30
0.0
 10
925.46484375
 20
-574.3398437499999
 30
0.0
 10
924.349609375
 20
-574.3398437499999
 30
0.0
 10
923.34375
 20
-574.3398437499999
 30
0.0
 10
922.595703125
 20
-573.90234375
 30
0.0
 10
922.1044921875
 20
-573.0292968749999
 30
0.0
 10
921.6953124999999
 20
-572.3007812499999
 30
0.0
 10
921.4902343749999
 20
-571.322265625
 30
0.0
 10
921.4902343749999
 20
-570.09375
 30
0.0
 10
921.4902343749999
 20
-569.142578125
 30
0.0
 10
921.6132812499999
 20
-568.3261718749999
 30
0.0
 10
921.8583984374999
 20
-567.6435546875
 30
0.0
 10
922.318359375
 20
-566.3730468749999
 30
0.0
 10
923.1513671874999
 20
-565.7373046875
 30
0.0
 10
924.3554687499999
 20
-565.7373046875
 30
0.0
 10
925.439453125
 20
-565.7373046875
 30
0.0
 10
926.22265625
 20
-566.1845703125
 30
0.0
 10
926.7060546874999
 20
-567.0771484374999
 30
0.0
  0
HATCH
  5
E8
330
DF
100
AcDbEntity
  8
Livello 1
 62
   250
100
AcDbHatch
 10
0.0
 20
0.0
 30
0.0
210
0.0
220
0.0
230
1.0
  2
SOLID
 70
     1
 71
     1
 91
        2
 92
        1
 93
        1
 72
     4
 94
        3
 73
     0
 74
     0
 95
       29
 96
       25
 40
0.0
 40
0.0
 40
0.0
 40
0.0
 40
1.0
 40
1.0
 40
1.0
 40
2.0
 40
2.0
 40
2.0
 40
3.0
 40
3.0
 40
3.0
 40
4.0
 40
4.0
 40
4.0
 40
5.0
 40
5.0
 40
5.0
 40
6.0
 40
6.0
 40
6.0
 40
7.0
 40
7.0
 40
7.0
 40
8.0
 40
8.0
 40
8.0
 40
8.0
 10
925.6474609375
 20
-572.6552734374999
 10
925.9716796875
 20
-572.1718749999999
 10
926.1337890625
 20
-571.2714843749999
 10
926.1337890625
 20
-569.9541015624999
 10
926.1337890625
 20
-569.0029296875
 10
926.0166015624999
 20
-568.2197265624999
 10
925.7822265625
 20
-567.6064453124999
 10
925.5478515625
 20
-566.9921875
 10
925.0927734375
 20
-566.6845703125
 10
924.4169921875
 20
-566.6845703125
 10
923.7958984375
 20
-566.6845703125
 10
923.3427734375
 20
-566.9765625
 10
923.0556640625
 20
-567.5595703125
 10
922.7685546874999
 20
-568.1416015625
 10
922.625
 20
-569.0009765624999
 10
922.625
 20
-570.134765625
 10
922.625
 20
-570.98828125
 10
922.716796875
 20
-571.6748046874999
 10
922.900390625
 20
-572.193359375
 10
923.181640625
 20
-572.9843749999999
 10
923.6611328125
 20
-573.380859375
 10
924.3408203125
 20
-573.380859375
 10
924.8876953125
 20
-573.380859375
 10
925.3232421874999
 20
-573.138671875
 10
925.6474609375
 20
-572.6552734374999
 97
        1
330
E6
 92
        1
 93
        1
 72
     4
 94
        3
 73
     0
 74
     0
 95
       29
 96
       25
 40
0.0
 40
0.0
 40
0.0
 40
0.0
 40
1.0
 40
1.0
 40
1.0
 40
2.0
 40
2.0
 40
2.0
 40
3.0
 40
3.0
 40
3.0
 40
4.0
 40
4.0
 40
4.0
 40
5.0
 40
5.0
 40
5.0
 40
6.0
 40
6.0
 40
6.0
 40
7.0
 40
7.0
 40
7.0
 40
8.0
 40
8.0
 40
8.0
 40
8.0
 10
926.7060546874999
 20
-567.0771484374999
 10
927.0810546874999
 20
-567.7666015625
 10
927.2675781249999
 20
-568.7119140624999
 10
927.2675781249999
 20
-569.9130859374999
 10
927.2675781249999
 20
-571.05078125
 10
927.0986328124999
 20
-571.9921874999999
 10
926.7587890625
 20
-572.7373046874999
 10
926.2675781249999
 20
-573.8056640625
 10
925.46484375
 20
-574.3398437499999
 10
924.349609375
 20
-574.3398437499999
 10
923.34375
 20
-574.3398437499999
 10
922.595703125
 20
-573.90234375
 10
922.1044921875
 20
-573.0292968749999
 10
921.6953124999999
 20
-572.3007812499999
 10
921.4902343749999
 20
-571.322265625
 10
921.4902343749999
 20
-570.09375
 10
921.4902343749999
 20
-569.142578125
 10
921.6132812499999
 20
-568.3261718749999
 10
921.8583984374999
 20
-567.6435546875
 10
922.318359375
 20
-566.3730468749999
 10
923.1513671874999
 20
-565.7373046875
 10
924.3554687499999
 20
-565.7373046875
 10
925.439453125
 20
-565.7373046875
 10
926.22265625
 20
-566.1845703125
 10
926.7060546874999
 20
-567.0771484374999
 97
        1
330
E7
 75
     2
 76
     1
 98
        1
 10
0.0
 20
0.0
  0
ENDBLK
  5
E2
330
DF
100
AcDbEntity
  8
0
100
AcDbBlockEnd
  0
BLOCK
  5
10A
330
108
100
AcDbEntity
  8
0
100
AcDbBlockBegin
  2
Block_13
 70
     0
 10
0.0
 20
0.0
 30
0.0
  3
Block_13
  1

  0
INSERT
  5
10D
330
108
100
AcDbEntity
  8
Livello 1
100
AcDbBlockReference
  2
Block_14
 10
0.0
 20
0.0
 30
0.0
  0
ENDBLK
  5
10B
330
108
100
AcDbEntity
  8
0
100
AcDbBlockEnd
  0
BLOCK
  5
10E
330
10C
100
AcDbEntity
  8
0
100
AcDbBlockBegin
  2
Block_14
 70
     0
 10
0.0
 20
0.0
 30
0.0
  3
Block_14
  1

  0
LINE
  5
110
330
10C
100
AcDbEntity
  8
Livello 1
 62
   250
370
    30
100
AcDbLine
 10
69.09387969970703
 20
-550.6812744140624
 30
0.0
 11
299.9928894042969
 21
-551.052001953125
 31
0.0
  0
LWPOLYLINE
  5
111
330
10C
100
AcDbEntity
  8
Livello 1
100
AcDbPolyline
 90
        3
 70
     1
 43
0.0
 10
70.12005615234375
 20
-554.2094116210937
 10
64.01899719238281
 20
-550.6734619140624
 10
70.13137817382812
 20
-547.1567993164062
  0
HATCH
  5
112
330
10C
100
AcDbEntity
  8
Livello 1
 62
   250
100
AcDbHatch
 10
0.0
 20
0.0
 30
0.0
210
0.0
220
0.0
230
1.0
  2
SOLID
 70
     1
 71
     1
 91
        1
 92
        1
 93
        3
 72
     1
 10
70.12005615234375
 20
-554.2094116210937
 11
64.01899719238281
 21
-550.6734619140624
 72
     1
 10
64.01899719238281
 20
-550.6734619140624
 11
70.13137817382812
 21
-547.1567993164062
 72
     1
 10
70.13137817382812
 20
-547.1567993164062
 11
70.12005615234375
 21
-554.2094116210937
 97
        1
330
111
 75
     2
 76
     1
 98
        1
 10
0.0
 20
0.0
  0
LWPOLYLINE
  5
113
330
10C
100
AcDbEntity
  8
Livello 1
100
AcDbPolyline
 90
        3
 70
     1
 43
0.0
 10
298.9553833007812
 20
-554.5768432617187
 10
305.0677490234375
 20
-551.0605468749999
 10
298.9667053222656
 20
-547.5242309570312
  0
HATCH
  5
114
330
10C
100
AcDbEntity
  8
Livello 1
 62
   250
100
AcDbHatch
 10
0.0
 20
0.0
 30
0.0
210
0.0
220
0.0
230
1.0
  2
SOLID
 70
     1
 71
     1
 91
        1
 92
        1
 93
        3
 72
     1
 10
298.9553833007812
 20
-554.5768432617187
 11
305.0677490234375
 21
-551.0605468749999
 72
     1
 10
305.0677490234375
 20
-551.0605468749999
 11
298.9667053222656
 21
-547.5242309570312
 72
     1
 10
298.9667053222656
 20
-547.5242309570312
 11
298.9553833007812
 21
-554.5768432617187
 97
        1
330
113
 75
     2
 76
     1
 98
        1
 10
0.0
 20
0.0
  0
ENDBLK
  5
10F
330
10C
100
AcDbEntity
  8
0
100
AcDbBlockEnd
  0
BLOCK
  5
117
330
115
100
AcDbEntity
  8
0
100
AcDbBlockBegin
  2
Block_15
 70
     0
 10
0.0
 20
0.0
 30
0.0
  3
Block_15
  1

  0
INSERT
  5
11A
330
115
100
AcDbEntity
  8
Livello 1
100
AcDbBlockReference
  2
Block_16
 10
0.0
 20
0.0
 30
0.0
  0
ENDBLK
  5
118
330
115
100
AcDbEntity
  8
0
100
AcDbBlockEnd
  0
BLOCK
  5
11B
330
119
100
AcDbEntity
  8
0
100
AcDbBlockBegin
  2
Block_16
 70
     0
 10
0.0
 20
0.0
 30
0.0
  3
Block_16
  1

  0
LINE
  5
11D
330
119
100
AcDbEntity
  8
Livello 1
 62
   250
370
    30
100
AcDbLine
 10
397.2203063964844
 20
-550.7282104492187
 30
0.0
 11
422.7233581542968
 21
-551.0050659179687
 31
0.0
  0
LWPOLYLINE
  5
11E
330
119
100
AcDbEntity
  8
Livello 1
100
AcDbPolyline
 90
        3
 70
     1
 43
0.0
 10
398.2138061523437
 20
-554.2656860351562
 10
392.1457214355469
 20
-550.6734619140624
 10
398.2903747558594
 20
-547.2135009765625
  0
HATCH
  5
11F
330
119
100
AcDbEntity
  8
Livello 1
 62
   250
100
AcDbHatch
 10
0.0
 20
0.0
 30
0.0
210
0.0
220
0.0
230
1.0
  2
SOLID
 70
     1
 71
     1
 91
        1
 92
        1
 93
        3
 72
     1
 10
398.2138061523437
 20
-554.2656860351562
 11
392.1457214355469
 21
-550.6734619140624
 72
     1
 10
392.1457214355469
 20
-550.6734619140624
 11
398.2903747558594
 21
-547.2135009765625
 72
     1
 10
398.2903747558594
 20
-547.2135009765625
 11
398.2138061523437
 21
-554.2656860351562
 97
        1
330
11E
 75
     2
 76
     1
 98
        1
 10
0.0
 20
0.0
  0
LWPOLYLINE
  5
120
330
119
100
AcDbEntity
  8
Livello 1
100
AcDbPolyline
 90
        3
 70
     1
 43
0.0
 10
421.6532897949218
 20
-554.5201416015625
 10
427.7979431152344
 20
-551.0605468749999
 10
421.7298583984375
 20
-547.4679565429688
  0
HATCH
  5
121
330
119
100
AcDbEntity
  8
Livello 1
 62
   250
100
AcDbHatch
 10
0.0
 20
0.0
 30
0.0
210
0.0
220
0.0
230
1.0
  2
SOLID
 70
     1
 71
     1
 91
        1
 92
        1
 93
        3
 72
     1
 10
421.6532897949218
 20
-554.5201416015625
 11
427.7979431152344
 21
-551.0605468749999
 72
     1
 10
427.7979431152344
 20
-551.0605468749999
 11
421.7298583984375
 21
-547.4679565429688
 72
     1
 10
421.7298583984375
 20
-547.4679565429688
 11
421.6532897949218
 21
-554.5201416015625
 97
        1
330
120
 75
     2
 76
     1
 98
        1
 10
0.0
 20
0.0
  0
ENDBLK
  5
11C
330
119
100
AcDbEntity
  8
0
100
AcDbBlockEnd
  0
BLOCK
  5
124
330
122
100
AcDbEntity
  8
0
100
AcDbBlockBegin
  2
Block_17
 70
     0
 10
0.0
 20
0.0
 30
0.0
  3
Block_17
  1

  0
INSERT
  5
127
330
122
100
AcDbEntity
  8
Livello 1
100
AcDbBlockReference
  2
Block_18
 10
0.0
 20
0.0
 30
0.0
  0
ENDBLK
  5
125
330
122
100
AcDbEntity
  8
0
100
AcDbBlockEnd
  0
BLOCK
  5
128
330
126
100
AcDbEntity
  8
0
100
AcDbBlockBegin
  2
Block_18
 70
     0
 10
0.0
 20
0.0
 30
0.0
  3
Block_18
  1

  0
LINE
  5
12A
330
126
100
AcDbEntity
  8
Livello 1
 62
   250
370
    30
100
AcDbLine
 10
329.5010375976563
 20
-337.957763671875
 30
0.0
 11
329.134765625
 21
-526.5609741210937
 31
0.0
  0
LWPOLYLINE
  5
12B
330
126
100
AcDbEntity
  8
Livello 1
100
AcDbPolyline
 90
        3
 70
     1
 43
0.0
 10
325.9725646972656
 20
-338.9827575683594
 10
329.5105285644531
 20
-332.8829040527344
 10
333.025146484375
 20
-338.9964599609375
  0
HATCH
  5
12C
330
126
100
AcDbEntity
  8
Livello 1
 62
   250
100
AcDbHatch
 10
0.0
 20
0.0
 30
0.0
210
0.0
220
0.0
230
1.0
  2
SOLID
 70
     1
 71
     1
 91
        1
 92
        1
 93
        3
 72
     1
 10
325.9725646972656
 20
-338.9827575683594
 11
329.5105285644531
 21
-332.8829040527344
 72
     1
 10
329.5105285644531
 20
-332.8829040527344
 11
333.025146484375
 21
-338.9964599609375
 72
     1
 10
333.025146484375
 20
-338.9964599609375
 11
325.9725646972656
 21
-338.9827575683594
 97
        1
330
12B
 75
     2
 76
     1
 98
        1
 10
0.0
 20
0.0
  0
LWPOLYLINE
  5
12D
330
126
100
AcDbEntity
  8
Livello 1
100
AcDbPolyline
 90
        3
 70
     1
 43
0.0
 10
325.6102905273437
 20
-525.5222778320312
 10
329.1245727539063
 20
-531.6358032226562
 10
332.6629028320312
 20
-525.5359497070312
  0
HATCH
  5
12E
330
126
100
AcDbEntity
  8
Livello 1
 62
   250
100
AcDbHatch
 10
0.0
 20
0.0
 30
0.0
210
0.0
220
0.0
230
1.0
  2
SOLID
 70
     1
 71
     1
 91
        1
 92
        1
 93
        3
 72
     1
 10
325.6102905273437
 20
-525.5222778320312
 11
329.1245727539063
 21
-531.6358032226562
 72
     1
 10
329.1245727539063
 20
-531.6358032226562
 11
332.6629028320312
 21
-525.5359497070312
 72
     1
 10
332.6629028320312
 20
-525.5359497070312
 11
325.6102905273437
 21
-525.5222778320312
 97
        1
330
12D
 75
     2
 76
     1
 98
        1
 10
0.0
 20
0.0
  0
ENDBLK
  5
129
330
126
100
AcDbEntity
  8
0
100
AcDbBlockEnd
  0
BLOCK
  5
131
330
12F
100
AcDbEntity
  8
0
100
AcDbBlockBegin
  2
Block_19
 70
     0
 10
0.0
 20
0.0
 30
0.0
  3
Block_19
  1

  0
INSERT
  5
134
330
12F
100
AcDbEntity
  8
Livello 1
100
AcDbBlockReference
  2
Block_20
 10
0.0
 20
0.0
 30
0.0
  0
ENDBLK
  5
132
330
12F
100
AcDbEntity
  8
0
100
AcDbBlockEnd
  0
BLOCK
  5
135
330
133
100
AcDbEntity
  8
0
100
AcDbBlockBegin
  2
Block_20
 70
     0
 10
0.0
 20
0.0
 30
0.0
  3
Block_20
  1

  0
SPLINE
  5
137
330
133
100
AcDbEntity
  8
Livello 1
100
AcDbSpline
210
0.0
220
0.0
230
1.0
 70
    11
 71
     3
 72
    29
 73
    25
 74
     0
 42
0.0000000001
 43
0.0000000001
 40
0.0
 40
0.0
 40
0.0
 40
0.0
 40
1.0
 40
1.0
 40
1.0
 40
2.0
 40
2.0
 40
2.0
 40
3.0
 40
3.0
 40
3.0
 40
4.0
 40
4.0
 40
4.0
 40
5.0
 40
5.0
 40
5.0
 40
6.0
 40
6.0
 40
6.0
 40
7.0
 40
7.0
 40
7.0
 40
8.0
 40
8.0
 40
8.0
 40
8.0
 10
176.1865234375
 20
-560.556640625
 30
0.0
 10
176.1865234375
 20
-560.556640625
 30
0.0
 10
176.1865234375
 20
-559.75
 30
0.0
 10
176.1865234375
 20
-559.75
 30
0.0
 10
176.94677734375
 20
-559.6757812499999
 30
0.0
 10
177.47705078125
 20
-559.5517578125
 30
0.0
 10
177.77734375
 20
-559.3789062499999
 30
0.0
 10
178.0771484375
 20
-559.205078125
 30
0.0
 10
178.30126953125
 20
-558.794921875
 30
0.0
 10
178.44970703125
 20
-558.1474609375
 30
0.0
 10
178.44970703125
 20
-558.1474609375
 30
0.0
 10
179.27978515625
 20
-558.1474609375
 30
0.0
 10
179.27978515625
 20
-558.1474609375
 30
0.0
 10
179.27978515625
 20
-558.1474609375
 30
0.0
 10
179.27978515625
 20
-566.4863281249999
 30
0.0
 10
179.27978515625
 20
-566.4863281249999
 30
0.0
 10
179.27978515625
 20
-566.4863281249999
 30
0.0
 10
178.1572265625
 20
-566.4863281249999
 30
0.0
 10
178.1572265625
 20
-566.4863281249999
 30
0.0
 10
178.1572265625
 20
-566.4863281249999
 30
0.0
 10
178.1572265625
 20
-560.556640625
 30
0.0
 10
178.1572265625
 20
-560.556640625
 30
0.0
 10
178.1572265625
 20
-560.556640625
 30
0.0
 10
176.1865234375
 20
-560.556640625
 30
0.0
 10
176.1865234375
 20
-560.556640625
 30
0.0
  0
HATCH
  5
138
330
133
100
AcDbEntity
  8
Livello 1
 62
   250
100
AcDbHatch
 10
0.0
 20
0.0
 30
0.0
210
0.0
220
0.0
230
1.0
  2
SOLID
 70
     1
 71
     1
 91
        1
 92
        1
 93
        1
 72
     4
 94
        3
 73
     0
 74
     0
 95
       29
 96
       25
 40
0.0
 40
0.0
 40
0.0
 40
0.0
 40
1.0
 40
1.0
 40
1.0
 40
2.0
 40
2.0
 40
2.0
 40
3.0
 40
3.0
 40
3.0
 40
4.0
 40
4.0
 40
4.0
 40
5.0
 40
5.0
 40
5.0
 40
6.0
 40
6.0
 40
6.0
 40
7.0
 40
7.0
 40
7.0
 40
8.0
 40
8.0
 40
8.0
 40
8.0
 10
176.1865234375
 20
-560.556640625
 10
176.1865234375
 20
-560.556640625
 10
176.1865234375
 20
-559.75
 10
176.1865234375
 20
-559.75
 10
176.94677734375
 20
-559.6757812499999
 10
177.47705078125
 20
-559.5517578125
 10
177.77734375
 20
-559.3789062499999
 10
178.0771484375
 20
-559.205078125
 10
178.30126953125
 20
-558.794921875
 10
178.44970703125
 20
-558.1474609375
 10
178.44970703125
 20
-558.1474609375
 10
179.27978515625
 20
-558.1474609375
 10
179.27978515625
 20
-558.1474609375
 10
179.27978515625
 20
-558.1474609375
 10
179.27978515625
 20
-566.4863281249999
 10
179.27978515625
 20
-566.4863281249999
 10
179.27978515625
 20
-566.4863281249999
 10
178.1572265625
 20
-566.4863281249999
 10
178.1572265625
 20
-566.4863281249999
 10
178.1572265625
 20
-566.4863281249999
 10
178.1572265625
 20
-560.556640625
 10
178.1572265625
 20
-560.556640625
 10
178.1572265625
 20
-560.556640625
 10
176.1865234375
 20
-560.556640625
 10
176.1865234375
 20
-560.556640625
 97
        1
330
137
 75
     2
 76
     1
 98
        1
 10
0.0
 20
0.0
  0
SPLINE
  5
139
330
133
100
AcDbEntity
  8
Livello 1
100
AcDbSpline
210
0.0
220
0.0
230
1.0
 70
     9
 71
     3
 72
    71
 73
    67
 74
     0
 42
0.0000000001
 43
0.0000000001
 40
0.0
 40
0.0
 40
0.0
 40
0.0
 40
1.0
 40
1.0
 40
1.0
 40
2.0
 40
2.0
 40
2.0
 40
3.0
 40
3.0
 40
3.0
 40
4.0
 40
4.0
 40
4.0
 40
5.0
 40
5.0
 40
5.0
 40
6.0
 40
6.0
 40
6.0
 40
7.0
 40
7.0
 40
7.0
 40
8.0
 40
8.0
 40
8.0
 40
9.0
 40
9.0
 40
9.0
 40
10.0
 40
10.0
 40
10.0
 40
11.0
 40
11.0
 40
11.0
 40
12.0
 40
12.0
 40
12.0
 40
13.0
 40
13.0
 40
13.0
 40
14.0
 40
14.0
 40
14.0
 40
15.0
 40
15.0
 40
15.0
 40
16.0
 40
16.0
 40
16.0
 40
17.0
 40
17.0
 40
17.0
 40
18.0
 40
18.0
 40
18.0
 40
19.0
 40
19.0
 40
19.0
 40
20.0
 40
20.0
 40
20.0
 40
21.0
 40
21.0
 40
21.0
 40
22.0
 40
22.0
 40
22.0
 40
22.0
 10
182.5224609375
 20
-564.6035156249999
 30
0.0
 10
182.78125
 20
-564.0693359374999
 30
0.0
 10
183.287109375
 20
-563.583984375
 30
0.0
 10
184.03955078125
 20
-563.1474609375
 30
0.0
 10
184.03955078125
 20
-563.1474609375
 30
0.0
 10
185.16259765625
 20
-562.498046875
 30
0.0
 10
185.16259765625
 20
-562.498046875
 30
0.0
 10
185.66552734375
 20
-562.2060546874999
 30
0.0
 10
186.01806640625
 20
-561.9560546875
 30
0.0
 10
186.220703125
 20
-561.7490234375
 30
0.0
 10
186.54052734375
 20
-561.4248046874999
 30
0.0
 10
186.7001953125
 20
-561.0537109375
 30
0.0
 10
186.7001953125
 20
-560.6357421874999
 30
0.0
 10
186.7001953125
 20
-560.1474609374999
 30
0.0
 10
186.55419921875
 20
-559.759765625
 30
0.0
 10
186.26171875
 20
-559.47265625
 30
0.0
 10
185.96923828125
 20
-559.185546875
 30
0.0
 10
185.57958984375
 20
-559.0419921875
 30
0.0
 10
185.09228515625
 20
-559.0419921875
 30
0.0
 10
184.37109375
 20
-559.0419921875
 30
0.0
 10
183.8720703125
 20
-559.31640625
 30
0.0
 10
183.59521484375
 20
-559.86328125
 30
0.0
 10
183.447265625
 20
-560.1572265625
 30
0.0
 10
183.365234375
 20
-560.5634765625
 30
0.0
 10
183.349609375
 20
-561.0830078124999
 30
0.0
 10
183.349609375
 20
-561.0830078124999
 30
0.0
 10
182.27978515625
 20
-561.0830078124999
 30
0.0
 10
182.27978515625
 20
-561.0830078124999
 30
0.0
 10
182.29150390625
 20
-560.3544921874999
 30
0.0
 10
182.42578125
 20
-559.759765625
 30
0.0
 10
182.68310546875
 20
-559.2998046875
 30
0.0
 10
183.13916015625
 20
-558.4892578125
 30
0.0
 10
183.9443359375
 20
-558.0830078125
 30
0.0
 10
185.09814453125
 20
-558.0830078125
 30
0.0
 10
186.05712890625
 20
-558.0830078125
 30
0.0
 10
186.7578125
 20
-558.3427734375
 30
0.0
 10
187.2001953125
 20
-558.8613281249999
 30
0.0
 10
187.642578125
 20
-559.3798828125
 30
0.0
 10
187.86376953125
 20
-559.95703125
 30
0.0
 10
187.86376953125
 20
-560.591796875
 30
0.0
 10
187.86376953125
 20
-561.2626953124999
 30
0.0
 10
187.6279296875
 20
-561.8359374999999
 30
0.0
 10
187.15625
 20
-562.3115234374999
 30
0.0
 10
186.88330078125
 20
-562.587890625
 30
0.0
 10
186.39404296875
 20
-562.9228515624999
 30
0.0
 10
185.6884765625
 20
-563.3173828124999
 30
0.0
 10
185.6884765625
 20
-563.3173828124999
 30
0.0
 10
184.8876953125
 20
-563.76171875
 30
0.0
 10
184.8876953125
 20
-563.76171875
 30
0.0
 10
184.50537109375
 20
-563.9716796874999
 30
0.0
 10
184.20556640625
 20
-564.1728515625
 30
0.0
 10
183.9873046875
 20
-564.3632812499999
 30
0.0
 10
183.59716796875
 20
-564.703125
 30
0.0
 10
183.3515625
 20
-565.0791015624999
 30
0.0
 10
183.25048828125
 20
-565.4921875
 30
0.0
 10
183.25048828125
 20
-565.4921875
 30
0.0
 10
187.8232421875
 20
-565.4921875
 30
0.0
 10
187.8232421875
 20
-565.4921875
 30
0.0
 10
187.8232421875
 20
-565.4921875
 30
0.0
 10
187.8232421875
 20
-566.4863281249999
 30
0.0
 10
187.8232421875
 20
-566.4863281249999
 30
0.0
 10
187.8232421875
 20
-566.4863281249999
 30
0.0
 10
182.07470703125
 20
-566.4863281249999
 30
0.0
 10
182.07470703125
 20
-566.4863281249999
 30
0.0
 10
182.11376953125
 20
-565.765625
 30
0.0
 10
182.26318359375
 20
-565.1376953125
 30
0.0
 10
182.5224609375
 20
-564.6035156249999
 30
0.0
  0
HATCH
  5
13A
330
133
100
AcDbEntity
  8
Livello 1
 62
   250
100
AcDbHatch
 10
0.0
 20
0.0
 30
0.0
210
0.0
220
0.0
230
1.0
  2
SOLID
 70
     1
 71
     1
 91
        1
 92
        1
 93
        1
 72
     4
 94
        3
 73
     0
 74
     0
 95
       71
 96
       67
 40
0.0
 40
0.0
 40
0.0
 40
0.0
 40
1.0
 40
1.0
 40
1.0
 40
2.0
 40
2.0
 40
2.0
 40
3.0
 40
3.0
 40
3.0
 40
4.0
 40
4.0
 40
4.0
 40
5.0
 40
5.0
 40
5.0
 40
6.0
 40
6.0
 40
6.0
 40
7.0
 40
7.0
 40
7.0
 40
8.0
 40
8.0
 40
8.0
 40
9.0
 40
9.0
 40
9.0
 40
10.0
 40
10.0
 40
10.0
 40
11.0
 40
11.0
 40
11.0
 40
12.0
 40
12.0
 40
12.0
 40
13.0
 40
13.0
 40
13.0
 40
14.0
 40
14.0
 40
14.0
 40
15.0
 40
15.0
 40
15.0
 40
16.0
 40
16.0
 40
16.0
 40
17.0
 40
17.0
 40
17.0
 40
18.0
 40
18.0
 40
18.0
 40
19.0
 40
19.0
 40
19.0
 40
20.0
 40
20.0
 40
20.0
 40
21.0
 40
21.0
 40
21.0
 40
22.0
 40
22.0
 40
22.0
 40
22.0
 10
182.5224609375
 20
-564.6035156249999
 10
182.78125
 20
-564.0693359374999
 10
183.287109375
 20
-563.583984375
 10
184.03955078125
 20
-563.1474609375
 10
184.03955078125
 20
-563.1474609375
 10
185.16259765625
 20
-562.498046875
 10
185.16259765625
 20
-562.498046875
 10
185.66552734375
 20
-562.2060546874999
 10
186.01806640625
 20
-561.9560546875
 10
186.220703125
 20
-561.7490234375
 10
186.54052734375
 20
-561.4248046874999
 10
186.7001953125
 20
-561.0537109375
 10
186.7001953125
 20
-560.6357421874999
 10
186.7001953125
 20
-560.1474609374999
 10
186.55419921875
 20
-559.759765625
 10
186.26171875
 20
-559.47265625
 10
185.96923828125
 20
-559.185546875
 10
185.57958984375
 20
-559.0419921875
 10
185.09228515625
 20
-559.0419921875
 10
184.37109375
 20
-559.0419921875
 10
183.8720703125
 20
-559.31640625
 10
183.59521484375
 20
-559.86328125
 10
183.447265625
 20
-560.1572265625
 10
183.365234375
 20
-560.5634765625
 10
183.349609375
 20
-561.0830078124999
 10
183.349609375
 20
-561.0830078124999
 10
182.27978515625
 20
-561.0830078124999
 10
182.27978515625
 20
-561.0830078124999
 10
182.29150390625
 20
-560.3544921874999
 10
182.42578125
 20
-559.759765625
 10
182.68310546875
 20
-559.2998046875
 10
183.13916015625
 20
-558.4892578125
 10
183.9443359375
 20
-558.0830078125
 10
185.09814453125
 20
-558.0830078125
 10
186.05712890625
 20
-558.0830078125
 10
186.7578125
 20
-558.3427734375
 10
187.2001953125
 20
-558.8613281249999
 10
187.642578125
 20
-559.3798828125
 10
187.86376953125
 20
-559.95703125
 10
187.86376953125
 20
-560.591796875
 10
187.86376953125
 20
-561.2626953124999
 10
187.6279296875
 20
-561.8359374999999
 10
187.15625
 20
-562.3115234374999
 10
186.88330078125
 20
-562.587890625
 10
186.39404296875
 20
-562.9228515624999
 10
185.6884765625
 20
-563.3173828124999
 10
185.6884765625
 20
-563.3173828124999
 10
184.8876953125
 20
-563.76171875
 10
184.8876953125
 20
-563.76171875
 10
184.50537109375
 20
-563.9716796874999
 10
184.20556640625
 20
-564.1728515625
 10
183.9873046875
 20
-564.3632812499999
 10
183.59716796875
 20
-564.703125
 10
183.3515625
 20
-565.0791015624999
 10
183.25048828125
 20
-565.4921875
 10
183.25048828125
 20
-565.4921875
 10
187.8232421875
 20
-565.4921875
 10
187.8232421875
 20
-565.4921875
 10
187.8232421875
 20
-565.4921875
 10
187.8232421875
 20
-566.4863281249999
 10
187.8232421875
 20
-566.4863281249999
 10
187.8232421875
 20
-566.4863281249999
 10
182.07470703125
 20
-566.4863281249999
 10
182.07470703125
 20
-566.4863281249999
 10
182.11376953125
 20
-565.765625
 10
182.26318359375
 20
-565.1376953125
 10
182.5224609375
 20
-564.6035156249999
 97
        1
330
139
 75
     2
 76
     1
 98
        1
 10
0.0
 20
0.0
  0
SPLINE
  5
13B
330
133
100
AcDbEntity
  8
Livello 1
100
AcDbSpline
210
0.0
220
0.0
230
1.0
 70
     9
 71
     3
 72
    29
 73
    25
 74
     0
 42
0.0000000001
 43
0.0000000001
 40
0.0
 40
0.0
 40
0.0
 40
0.0
 40
1.0
 40
1.0
 40
1.0
 40
2.0
 40
2.0
 40
2.0
 40
3.0
 40
3.0
 40
3.0
 40
4.0
 40
4.0
 40
4.0
 40
5.0
 40
5.0
 40
5.0
 40
6.0
 40
6.0
 40
6.0
 40
7.0
 40
7.0
 40
7.0
 40
8.0
 40
8.0
 40
8.0
 40
8.0
 10
192.89208984375
 20
-565.0302734374999
 30
0.0
 10
193.21630859375
 20
-564.546875
 30
0.0
 10
193.37841796875
 20
-563.6464843749999
 30
0.0
 10
193.37841796875
 20
-562.3291015625
 30
0.0
 10
193.37841796875
 20
-561.3779296875
 30
0.0
 10
193.26123046875
 20
-560.5947265624999
 30
0.0
 10
193.02685546875
 20
-559.9814453125
 30
0.0
 10
192.79296875
 20
-559.3671875
 30
0.0
 10
192.337890625
 20
-559.0595703125
 30
0.0
 10
191.662109375
 20
-559.0595703125
 30
0.0
 10
191.04150390625
 20
-559.0595703125
 30
0.0
 10
190.58740234375
 20
-559.3515625
 30
0.0
 10
190.30029296875
 20
-559.9345703125
 30
0.0
 10
190.013671875
 20
-560.5166015625
 30
0.0
 10
189.8701171875
 20
-561.3759765624999
 30
0.0
 10
189.8701171875
 20
-562.509765625
 30
0.0
 10
189.8701171875
 20
-563.36328125
 30
0.0
 10
189.9619140625
 20
-564.0498046874999
 30
0.0
 10
190.1455078125
 20
-564.568359375
 30
0.0
 10
190.42626953125
 20
-565.3593749999999
 30
0.0
 10
190.90673828125
 20
-565.755859375
 30
0.0
 10
191.5859375
 20
-565.755859375
 30
0.0
 10
192.1328125
 20
-565.755859375
 30
0.0
 10
192.568359375
 20
-565.5136718749999
 30
0.0
 10
192.89208984375
 20
-565.0302734374999
 30
0.0
  0
SPLINE
  5
13C
330
133
100
AcDbEntity
  8
Livello 1
100
AcDbSpline
210
0.0
220
0.0
230
1.0
 70
     9
 71
     3
 72
    29
 73
    25
 74
     0
 42
0.0000000001
 43
0.0000000001
 40
0.0
 40
0.0
 40
0.0
 40
0.0
 40
1.0
 40
1.0
 40
1.0
 40
2.0
 40
2.0
 40
2.0
 40
3.0
 40
3.0
 40
3.0
 40
4.0
 40
4.0
 40
4.0
 40
5.0
 40
5.0
 40
5.0
 40
6.0
 40
6.0
 40
6.0
 40
7.0
 40
7.0
 40
7.0
 40
8.0
 40
8.0
 40
8.0
 40
8.0
 10
193.95166015625
 20
-559.4521484374999
 30
0.0
 10
194.32568359375
 20
-560.1416015625
 30
0.0
 10
194.5126953125
 20
-561.0869140624999
 30
0.0
 10
194.5126953125
 20
-562.2880859374999
 30
0.0
 10
194.5126953125
 20
-563.42578125
 30
0.0
 10
194.34326171875
 20
-564.3671874999999
 30
0.0
 10
194.00439453125
 20
-565.1123046875
 30
0.0
 10
193.51318359375
 20
-566.1806640625
 30
0.0
 10
192.7099609375
 20
-566.7148437499999
 30
0.0
 10
191.59521484375
 20
-566.7148437499999
 30
0.0
 10
190.58935546875
 20
-566.7148437499999
 30
0.0
 10
189.8408203125
 20
-566.27734375
 30
0.0
 10
189.349609375
 20
-565.4042968749999
 30
0.0
 10
188.9404296875
 20
-564.6757812499999
 30
0.0
 10
188.7353515625
 20
-563.697265625
 30
0.0
 10
188.7353515625
 20
-562.46875
 30
0.0
 10
188.7353515625
 20
-561.517578125
 30
0.0
 10
188.8583984375
 20
-560.7011718749999
 30
0.0
 10
189.10400390625
 20
-560.0185546875
 30
0.0
 10
189.56396484375
 20
-558.7480468749999
 30
0.0
 10
190.396484375
 20
-558.1123046874999
 30
0.0
 10
191.60107421875
 20
-558.1123046874999
 30
0.0
 10
192.6845703125
 20
-558.1123046874999
 30
0.0
 10
193.46826171875
 20
-558.5595703125
 30
0.0
 10
193.95166015625
 20
-559.4521484374999
 30
0.0
  0
HATCH
  5
13D
330
133
100
AcDbEntity
  8
Livello 1
 62
   250
100
AcDbHatch
 10
0.0
 20
0.0
 30
0.0
210
0.0
220
0.0
230
1.0
  2
SOLID
 70
     1
 71
     1
 91
        2
 92
        1
 93
        1
 72
     4
 94
        3
 73
     0
 74
     0
 95
       29
 96
       25
 40
0.0
 40
0.0
 40
0.0
 40
0.0
 40
1.0
 40
1.0
 40
1.0
 40
2.0
 40
2.0
 40
2.0
 40
3.0
 40
3.0
 40
3.0
 40
4.0
 40
4.0
 40
4.0
 40
5.0
 40
5.0
 40
5.0
 40
6.0
 40
6.0
 40
6.0
 40
7.0
 40
7.0
 40
7.0
 40
8.0
 40
8.0
 40
8.0
 40
8.0
 10
192.89208984375
 20
-565.0302734374999
 10
193.21630859375
 20
-564.546875
 10
193.37841796875
 20
-563.6464843749999
 10
193.37841796875
 20
-562.3291015625
 10
193.37841796875
 20
-561.3779296875
 10
193.26123046875
 20
-560.5947265624999
 10
193.02685546875
 20
-559.9814453125
 10
192.79296875
 20
-559.3671875
 10
192.337890625
 20
-559.0595703125
 10
191.662109375
 20
-559.0595703125
 10
191.04150390625
 20
-559.0595703125
 10
190.58740234375
 20
-559.3515625
 10
190.30029296875
 20
-559.9345703125
 10
190.013671875
 20
-560.5166015625
 10
189.8701171875
 20
-561.3759765624999
 10
189.8701171875
 20
-562.509765625
 10
189.8701171875
 20
-563.36328125
 10
189.9619140625
 20
-564.0498046874999
 10
190.1455078125
 20
-564.568359375
 10
190.42626953125
 20
-565.3593749999999
 10
190.90673828125
 20
-565.755859375
 10
191.5859375
 20
-565.755859375
 10
192.1328125
 20
-565.755859375
 10
192.568359375
 20
-565.5136718749999
 10
192.89208984375
 20
-565.0302734374999
 97
        1
330
13B
 92
        1
 93
        1
 72
     4
 94
        3
 73
     0
 74
     0
 95
       29
 96
       25
 40
0.0
 40
0.0
 40
0.0
 40
0.0
 40
1.0
 40
1.0
 40
1.0
 40
2.0
 40
2.0
 40
2.0
 40
3.0
 40
3.0
 40
3.0
 40
4.0
 40
4.0
 40
4.0
 40
5.0
 40
5.0
 40
5.0
 40
6.0
 40
6.0
 40
6.0
 40
7.0
 40
7.0
 40
7.0
 40
8.0
 40
8.0
 40
8.0
 40
8.0
 10
193.95166015625
 20
-559.4521484374999
 10
194.32568359375
 20
-560.1416015625
 10
194.5126953125
 20
-561.0869140624999
 10
194.5126953125
 20
-562.2880859374999
 10
194.5126953125
 20
-563.42578125
 10
194.34326171875
 20
-564.3671874999999
 10
194.00439453125
 20
-565.1123046875
 10
193.51318359375
 20
-566.1806640625
 10
192.7099609375
 20
-566.7148437499999
 10
191.59521484375
 20
-566.7148437499999
 10
190.58935546875
 20
-566.7148437499999
 10
189.8408203125
 20
-566.27734375
 10
189.349609375
 20
-565.4042968749999
 10
188.9404296875
 20
-564.6757812499999
 10
188.7353515625
 20
-563.697265625
 10
188.7353515625
 20
-562.46875
 10
188.7353515625
 20
-561.517578125
 10
188.8583984375
 20
-560.7011718749999
 10
189.10400390625
 20
-560.0185546875
 10
189.56396484375
 20
-558.7480468749999
 10
190.396484375
 20
-558.1123046874999
 10
191.60107421875
 20
-558.1123046874999
 10
192.6845703125
 20
-558.1123046874999
 10
193.46826171875
 20
-558.5595703125
 10
193.95166015625
 20
-559.4521484374999
 97
        1
330
13C
 75
     2
 76
     1
 98
        1
 10
0.0
 20
0.0
  0
ENDBLK
  5
136
330
133
100
AcDbEntity
  8
0
100
AcDbBlockEnd
  0
BLOCK
  5
140
330
13E
100
AcDbEntity
  8
0
100
AcDbBlockBegin
  2
Block_21
 70
     0
 10
0.0
 20
0.0
 30
0.0
  3
Block_21
  1

  0
INSERT
  5
143
330
13E
100
AcDbEntity
  8
Livello 1
100
AcDbBlockReference
  2
Block_22
 10
0.0
 20
0.0
 30
0.0
  0
ENDBLK
  5
141
330
13E
100
AcDbEntity
  8
0
100
AcDbBlockEnd
  0
BLOCK
  5
144
330
142
100
AcDbEntity
  8
0
100
AcDbBlockBegin
  2
Block_22
 70
     0
 10
0.0
 20
0.0
 30
0.0
  3
Block_22
  1

  0
SPLINE
  5
146
330
142
100
AcDbEntity
  8
Livello 1
100
AcDbSpline
210
0.0
220
0.0
230
1.0
 70
     9
 71
     3
 72
    71
 73
    67
 74
     0
 42
0.0000000001
 43
0.0000000001
 40
0.0
 40
0.0
 40
0.0
 40
0.0
 40
1.0
 40
1.0
 40
1.0
 40
2.0
 40
2.0
 40
2.0
 40
3.0
 40
3.0
 40
3.0
 40
4.0
 40
4.0
 40
4.0
 40
5.0
 40
5.0
 40
5.0
 40
6.0
 40
6.0
 40
6.0
 40
7.0
 40
7.0
 40
7.0
 40
8.0
 40
8.0
 40
8.0
 40
9.0
 40
9.0
 40
9.0
 40
10.0
 40
10.0
 40
10.0
 40
11.0
 40
11.0
 40
11.0
 40
12.0
 40
12.0
 40
12.0
 40
13.0
 40
13.0
 40
13.0
 40
14.0
 40
14.0
 40
14.0
 40
15.0
 40
15.0
 40
15.0
 40
16.0
 40
16.0
 40
16.0
 40
17.0
 40
17.0
 40
17.0
 40
18.0
 40
18.0
 40
18.0
 40
19.0
 40
19.0
 40
19.0
 40
20.0
 40
20.0
 40
20.0
 40
21.0
 40
21.0
 40
21.0
 40
22.0
 40
22.0
 40
22.0
 40
22.0
 10
404.38720703125
 20
-564.6035156249999
 30
0.0
 10
404.6459960937499
 20
-564.0693359374999
 30
0.0
 10
405.15185546875
 20
-563.583984375
 30
0.0
 10
405.904296875
 20
-563.1474609375
 30
0.0
 10
405.904296875
 20
-563.1474609375
 30
0.0
 10
407.02734375
 20
-562.498046875
 30
0.0
 10
407.02734375
 20
-562.498046875
 30
0.0
 10
407.5302734374999
 20
-562.2060546874999
 30
0.0
 10
407.8828125
 20
-561.9560546875
 30
0.0
 10
408.08544921875
 20
-561.7490234375
 30
0.0
 10
408.4052734374999
 20
-561.4248046874999
 30
0.0
 10
408.5649414062499
 20
-561.0537109375
 30
0.0
 10
408.5649414062499
 20
-560.6357421874999
 30
0.0
 10
408.5649414062499
 20
-560.1474609374999
 30
0.0
 10
408.4189453125
 20
-559.759765625
 30
0.0
 10
408.12646484375
 20
-559.47265625
 30
0.0
 10
407.833984375
 20
-559.185546875
 30
0.0
 10
407.4443359375
 20
-559.0419921875
 30
0.0
 10
406.9570312499999
 20
-559.0419921875
 30
0.0
 10
406.23583984375
 20
-559.0419921875
 30
0.0
 10
405.7368164062499
 20
-559.31640625
 30
0.0
 10
405.4599609374999
 20
-559.86328125
 30
0.0
 10
405.31201171875
 20
-560.1572265625
 30
0.0
 10
405.22998046875
 20
-560.5634765625
 30
0.0
 10
405.21435546875
 20
-561.0830078124999
 30
0.0
 10
405.21435546875
 20
-561.0830078124999
 30
0.0
 10
404.14453125
 20
-561.0830078124999
 30
0.0
 10
404.14453125
 20
-561.0830078124999
 30
0.0
 10
404.15625
 20
-560.3544921874999
 30
0.0
 10
404.29052734375
 20
-559.759765625
 30
0.0
 10
404.5478515624999
 20
-559.2998046875
 30
0.0
 10
405.0039062499999
 20
-558.4892578125
 30
0.0
 10
405.8090820312499
 20
-558.0830078125
 30
0.0
 10
406.962890625
 20
-558.0830078125
 30
0.0
 10
407.9218749999999
 20
-558.0830078125
 30
0.0
 10
408.62255859375
 20
-558.3427734375
 30
0.0
 10
409.0649414062499
 20
-558.8613281249999
 30
0.0
 10
409.50732421875
 20
-559.3798828125
 30
0.0
 10
409.7285156249999
 20
-559.95703125
 30
0.0
 10
409.7285156249999
 20
-560.591796875
 30
0.0
 10
409.7285156249999
 20
-561.2626953124999
 30
0.0
 10
409.4926757812499
 20
-561.8359374999999
 30
0.0
 10
409.02099609375
 20
-562.3115234374999
 30
0.0
 10
408.7480468749999
 20
-562.587890625
 30
0.0
 10
408.2587890624999
 20
-562.9228515624999
 30
0.0
 10
407.55322265625
 20
-563.3173828124999
 30
0.0
 10
407.55322265625
 20
-563.3173828124999
 30
0.0
 10
406.75244140625
 20
-563.76171875
 30
0.0
 10
406.75244140625
 20
-563.76171875
 30
0.0
 10
406.3701171875
 20
-563.9716796874999
 30
0.0
 10
406.0703124999999
 20
-564.1728515625
 30
0.0
 10
405.85205078125
 20
-564.3632812499999
 30
0.0
 10
405.4619140625
 20
-564.703125
 30
0.0
 10
405.2163085937499
 20
-565.0791015624999
 30
0.0
 10
405.115234375
 20
-565.4921875
 30
0.0
 10
405.115234375
 20
-565.4921875
 30
0.0
 10
409.6879882812499
 20
-565.4921875
 30
0.0
 10
409.6879882812499
 20
-565.4921875
 30
0.0
 10
409.6879882812499
 20
-565.4921875
 30
0.0
 10
409.6879882812499
 20
-566.4863281249999
 30
0.0
 10
409.6879882812499
 20
-566.4863281249999
 30
0.0
 10
409.6879882812499
 20
-566.4863281249999
 30
0.0
 10
403.939453125
 20
-566.4863281249999
 30
0.0
 10
403.939453125
 20
-566.4863281249999
 30
0.0
 10
403.9785156249999
 20
-565.765625
 30
0.0
 10
404.1279296875
 20
-565.1376953125
 30
0.0
 10
404.38720703125
 20
-564.6035156249999
 30
0.0
  0
HATCH
  5
147
330
142
100
AcDbEntity
  8
Livello 1
 62
   250
100
AcDbHatch
 10
0.0
 20
0.0
 30
0.0
210
0.0
220
0.0
230
1.0
  2
SOLID
 70
     1
 71
     1
 91
        1
 92
        1
 93
        1
 72
     4
 94
        3
 73
     0
 74
     0
 95
       71
 96
       67
 40
0.0
 40
0.0
 40
0.0
 40
0.0
 40
1.0
 40
1.0
 40
1.0
 40
2.0
 40
2.0
 40
2.0
 40
3.0
 40
3.0
 40
3.0
 40
4.0
 40
4.0
 40
4.0
 40
5.0
 40
5.0
 40
5.0
 40
6.0
 40
6.0
 40
6.0
 40
7.0
 40
7.0
 40
7.0
 40
8.0
 40
8.0
 40
8.0
 40
9.0
 40
9.0
 40
9.0
 40
10.0
 40
10.0
 40
10.0
 40
11.0
 40
11.0
 40
11.0
 40
12.0
 40
12.0
 40
12.0
 40
13.0
 40
13.0
 40
13.0
 40
14.0
 40
14.0
 40
14.0
 40
15.0
 40
15.0
 40
15.0
 40
16.0
 40
16.0
 40
16.0
 40
17.0
 40
17.0
 40
17.0
 40
18.0
 40
18.0
 40
18.0
 40
19.0
 40
19.0
 40
19.0
 40
20.0
 40
20.0
 40
20.0
 40
21.0
 40
21.0
 40
21.0
 40
22.0
 40
22.0
 40
22.0
 40
22.0
 10
404.38720703125
 20
-564.6035156249999
 10
404.6459960937499
 20
-564.0693359374999
 10
405.15185546875
 20
-563.583984375
 10
405.904296875
 20
-563.1474609375
 10
405.904296875
 20
-563.1474609375
 10
407.02734375
 20
-562.498046875
 10
407.02734375
 20
-562.498046875
 10
407.5302734374999
 20
-562.2060546874999
 10
407.8828125
 20
-561.9560546875
 10
408.08544921875
 20
-561.7490234375
 10
408.4052734374999
 20
-561.4248046874999
 10
408.5649414062499
 20
-561.0537109375
 10
408.5649414062499
 20
-560.6357421874999
 10
408.5649414062499
 20
-560.1474609374999
 10
408.4189453125
 20
-559.759765625
 10
408.12646484375
 20
-559.47265625
 10
407.833984375
 20
-559.185546875
 10
407.4443359375
 20
-559.0419921875
 10
406.9570312499999
 20
-559.0419921875
 10
406.23583984375
 20
-559.0419921875
 10
405.7368164062499
 20
-559.31640625
 10
405.4599609374999
 20
-559.86328125
 10
405.31201171875
 20
-560.1572265625
 10
405.22998046875
 20
-560.5634765625
 10
405.21435546875
 20
-561.0830078124999
 10
405.21435546875
 20
-561.0830078124999
 10
404.14453125
 20
-561.0830078124999
 10
404.14453125
 20
-561.0830078124999
 10
404.15625
 20
-560.3544921874999
 10
404.29052734375
 20
-559.759765625
 10
404.5478515624999
 20
-559.2998046875
 10
405.0039062499999
 20
-558.4892578125
 10
405.8090820312499
 20
-558.0830078125
 10
406.962890625
 20
-558.0830078125
 10
407.9218749999999
 20
-558.0830078125
 10
408.62255859375
 20
-558.3427734375
 10
409.0649414062499
 20
-558.8613281249999
 10
409.50732421875
 20
-559.3798828125
 10
409.7285156249999
 20
-559.95703125
 10
409.7285156249999
 20
-560.591796875
 10
409.7285156249999
 20
-561.2626953124999
 10
409.4926757812499
 20
-561.8359374999999
 10
409.02099609375
 20
-562.3115234374999
 10
408.7480468749999
 20
-562.587890625
 10
408.2587890624999
 20
-562.9228515624999
 10
407.55322265625
 20
-563.3173828124999
 10
407.55322265625
 20
-563.3173828124999
 10
406.75244140625
 20
-563.76171875
 10
406.75244140625
 20
-563.76171875
 10
406.3701171875
 20
-563.9716796874999
 10
406.0703124999999
 20
-564.1728515625
 10
405.85205078125
 20
-564.3632812499999
 10
405.4619140625
 20
-564.703125
 10
405.2163085937499
 20
-565.0791015624999
 10
405.115234375
 20
-565.4921875
 10
405.115234375
 20
-565.4921875
 10
409.6879882812499
 20
-565.4921875
 10
409.6879882812499
 20
-565.4921875
 10
409.6879882812499
 20
-565.4921875
 10
409.6879882812499
 20
-566.4863281249999
 10
409.6879882812499
 20
-566.4863281249999
 10
409.6879882812499
 20
-566.4863281249999
 10
403.939453125
 20
-566.4863281249999
 10
403.939453125
 20
-566.4863281249999
 10
403.9785156249999
 20
-565.765625
 10
404.1279296875
 20
-565.1376953125
 10
404.38720703125
 20
-564.6035156249999
 97
        1
330
146
 75
     2
 76
     1
 98
        1
 10
0.0
 20
0.0
  0
SPLINE
  5
148
330
142
100
AcDbEntity
  8
Livello 1
100
AcDbSpline
210
0.0
220
0.0
230
1.0
 70
    11
 71
     3
 72
    98
 73
    94
 74
     0
 42
0.0000000001
 43
0.0000000001
 40
0.0
 40
0.0
 40
0.0
 40
0.0
 40
1.0
 40
1.0
 40
1.0
 40
2.0
 40
2.0
 40
2.0
 40
3.0
 40
3.0
 40
3.0
 40
4.0
 40
4.0
 40
4.0
 40
5.0
 40
5.0
 40
5.0
 40
6.0
 40
6.0
 40
6.0
 40
7.0
 40
7.0
 40
7.0
 40
8.0
 40
8.0
 40
8.0
 40
9.0
 40
9.0
 40
9.0
 40
10.0
 40
10.0
 40
10.0
 40
11.0
 40
11.0
 40
11.0
 40
12.0
 40
12.0
 40
12.0
 40
13.0
 40
13.0
 40
13.0
 40
14.0
 40
14.0
 40
14.0
 40
15.0
 40
15.0
 40
15.0
 40
16.0
 40
16.0
 40
16.0
 40
17.0
 40
17.0
 40
17.0
 40
18.0
 40
18.0
 40
18.0
 40
19.0
 40
19.0
 40
19.0
 40
20.0
 40
20.0
 40
20.0
 40
21.0
 40
21.0
 40
21.0
 40
22.0
 40
22.0
 40
22.0
 40
23.0
 40
23.0
 40
23.0
 40
24.0
 40
24.0
 40
24.0
 40
25.0
 40
25.0
 40
25.0
 40
26.0
 40
26.0
 40
26.0
 40
27.0
 40
27.0
 40
27.0
 40
28.0
 40
28.0
 40
28.0
 40
29.0
 40
29.0
 40
29.0
 40
30.0
 40
30.0
 40
30.0
 40
31.0
 40
31.0
 40
31.0
 40
31.0
 10
411.181640625
 20
-565.8984375
 30
0.0
 10
410.7353515625
 20
-565.3544921875
 30
0.0
 10
410.51220703125
 20
-564.693359375
 30
0.0
 10
410.51220703125
 20
-563.9130859375
 30
0.0
 10
410.51220703125
 20
-563.9130859375
 30
0.0
 10
411.6113281249999
 20
-563.9130859375
 30
0.0
 10
411.6113281249999
 20
-563.9130859375
 30
0.0
 10
411.658203125
 20
-564.455078125
 30
0.0
 10
411.759765625
 20
-564.8486328125
 30
0.0
 10
411.91552734375
 20
-565.0947265624999
 30
0.0
 10
412.1884765625
 20
-565.5351562499999
 30
0.0
 10
412.6816406249999
 20
-565.755859375
 30
0.0
 10
413.3950195312499
 20
-565.755859375
 30
0.0
 10
413.9482421874999
 20
-565.755859375
 30
0.0
 10
414.39306640625
 20
-565.6074218749999
 30
0.0
 10
414.72802734375
 20
-565.3105468749999
 30
0.0
 10
415.0634765625
 20
-565.0146484375
 30
0.0
 10
415.23095703125
 20
-564.6328125
 30
0.0
 10
415.23095703125
 20
-564.1650390625
 30
0.0
 10
415.23095703125
 20
-563.587890625
 30
0.0
 10
415.0546874999999
 20
-563.1845703125
 30
0.0
 10
414.70166015625
 20
-562.9541015625
 30
0.0
 10
414.34912109375
 20
-562.724609375
 30
0.0
 10
413.8588867187499
 20
-562.6093749999999
 30
0.0
 10
413.2314453124999
 20
-562.6093749999999
 30
0.0
 10
413.1611328125
 20
-562.6093749999999
 30
0.0
 10
413.0898437499999
 20
-562.6103515625
 30
0.0
 10
413.017578125
 20
-562.6123046875
 30
0.0
 10
412.94580078125
 20
-562.6142578125
 30
0.0
 10
412.87255859375
 20
-562.6171874999999
 30
0.0
 10
412.79833984375
 20
-562.6210937499999
 30
0.0
 10
412.79833984375
 20
-562.6210937499999
 30
0.0
 10
412.79833984375
 20
-561.69140625
 30
0.0
 10
412.79833984375
 20
-561.69140625
 30
0.0
 10
412.90771484375
 20
-561.703125
 30
0.0
 10
412.9990234374999
 20
-561.7109375
 30
0.0
 10
413.0732421874999
 20
-561.71484375
 30
0.0
 10
413.1474609375
 20
-561.71875
 30
0.0
 10
413.2270507812499
 20
-561.720703125
 30
0.0
 10
413.3129882812499
 20
-561.720703125
 30
0.0
 10
413.70654296875
 20
-561.720703125
 30
0.0
 10
414.0302734375
 20
-561.658203125
 30
0.0
 10
414.28369140625
 20
-561.533203125
 30
0.0
 10
414.72802734375
 20
-561.3154296874999
 30
0.0
 10
414.9501953125
 20
-560.92578125
 30
0.0
 10
414.9501953125
 20
-560.3642578125
 30
0.0
 10
414.9501953125
 20
-559.9472656249999
 30
0.0
 10
414.8022460937499
 20
-559.625
 30
0.0
 10
414.5058593749999
 20
-559.3994140625
 30
0.0
 10
414.20947265625
 20
-559.1728515625
 30
0.0
 10
413.86474609375
 20
-559.0595703125
 30
0.0
 10
413.4711914062499
 20
-559.0595703125
 30
0.0
 10
412.76904296875
 20
-559.0595703125
 30
0.0
 10
412.2836914062499
 20
-559.2939453125
 30
0.0
 10
412.0151367187499
 20
-559.76171875
 30
0.0
 10
411.86669921875
 20
-560.0185546875
 30
0.0
 10
411.7827148437499
 20
-560.3857421875
 30
0.0
 10
411.763671875
 20
-560.861328125
 30
0.0
 10
411.763671875
 20
-560.861328125
 30
0.0
 10
410.72265625
 20
-560.861328125
 30
0.0
 10
410.72265625
 20
-560.861328125
 30
0.0
 10
410.72265625
 20
-560.2373046874999
 30
0.0
 10
410.8471679687499
 20
-559.70703125
 30
0.0
 10
411.0966796875
 20
-559.2705078125
 30
0.0
 10
411.5258789062499
 20
-558.4912109374999
 30
0.0
 10
412.2797851562499
 20
-558.1005859374999
 30
0.0
 10
413.35986328125
 20
-558.1005859374999
 30
0.0
 10
414.21337890625
 20
-558.1005859374999
 30
0.0
 10
414.87451171875
 20
-558.291015625
 30
0.0
 10
415.34228515625
 20
-558.6708984374999
 30
0.0
 10
415.81005859375
 20
-559.05078125
 30
0.0
 10
416.0439453124999
 20
-559.6015624999999
 30
0.0
 10
416.0439453124999
 20
-560.3232421875
 30
0.0
 10
416.0439453124999
 20
-560.837890625
 30
0.0
 10
415.9052734374999
 20
-561.2548828125
 30
0.0
 10
415.6289062499999
 20
-561.57421875
 30
0.0
 10
415.4570312499999
 20
-561.7734375
 30
0.0
 10
415.23486328125
 20
-561.9287109375
 30
0.0
 10
414.9619140625
 20
-562.0419921875
 30
0.0
 10
415.40234375
 20
-562.1630859375
 30
0.0
 10
415.7465820312499
 20
-562.3955078125
 30
0.0
 10
415.9941406249999
 20
-562.7412109375
 30
0.0
 10
416.24169921875
 20
-563.0859375
 30
0.0
 10
416.36572265625
 20
-563.5078124999999
 30
0.0
 10
416.36572265625
 20
-564.0068359375
 30
0.0
 10
416.36572265625
 20
-564.8066406249999
 30
0.0
 10
416.1025390625
 20
-565.4570312499999
 30
0.0
 10
415.576171875
 20
-565.9599609375
 30
0.0
 10
415.0498046874999
 20
-566.4628906249999
 30
0.0
 10
414.30322265625
 20
-566.7148437499999
 30
0.0
 10
413.33642578125
 20
-566.7148437499999
 30
0.0
 10
412.34619140625
 20
-566.7148437499999
 30
0.0
 10
411.6279296874999
 20
-566.4423828124999
 30
0.0
 10
411.181640625
 20
-565.8984375
 30
0.0
  0
HATCH
  5
149
330
142
100
AcDbEntity
  8
Livello 1
 62
   250
100
AcDbHatch
 10
0.0
 20
0.0
 30
0.0
210
0.0
220
0.0
230
1.0
  2
SOLID
 70
     1
 71
     1
 91
        1
 92
        1
 93
        1
 72
     4
 94
        3
 73
     0
 74
     0
 95
       98
 96
       94
 40
0.0
 40
0.0
 40
0.0
 40
0.0
 40
1.0
 40
1.0
 40
1.0
 40
2.0
 40
2.0
 40
2.0
 40
3.0
 40
3.0
 40
3.0
 40
4.0
 40
4.0
 40
4.0
 40
5.0
 40
5.0
 40
5.0
 40
6.0
 40
6.0
 40
6.0
 40
7.0
 40
7.0
 40
7.0
 40
8.0
 40
8.0
 40
8.0
 40
9.0
 40
9.0
 40
9.0
 40
10.0
 40
10.0
 40
10.0
 40
11.0
 40
11.0
 40
11.0
 40
12.0
 40
12.0
 40
12.0
 40
13.0
 40
13.0
 40
13.0
 40
14.0
 40
14.0
 40
14.0
 40
15.0
 40
15.0
 40
15.0
 40
16.0
 40
16.0
 40
16.0
 40
17.0
 40
17.0
 40
17.0
 40
18.0
 40
18.0
 40
18.0
 40
19.0
 40
19.0
 40
19.0
 40
20.0
 40
20.0
 40
20.0
 40
21.0
 40
21.0
 40
21.0
 40
22.0
 40
22.0
 40
22.0
 40
23.0
 40
23.0
 40
23.0
 40
24.0
 40
24.0
 40
24.0
 40
25.0
 40
25.0
 40
25.0
 40
26.0
 40
26.0
 40
26.0
 40
27.0
 40
27.0
 40
27.0
 40
28.0
 40
28.0
 40
28.0
 40
29.0
 40
29.0
 40
29.0
 40
30.0
 40
30.0
 40
30.0
 40
31.0
 40
31.0
 40
31.0
 40
31.0
 10
411.181640625
 20
-565.8984375
 10
410.7353515625
 20
-565.3544921875
 10
410.51220703125
 20
-564.693359375
 10
410.51220703125
 20
-563.9130859375
 10
410.51220703125
 20
-563.9130859375
 10
411.6113281249999
 20
-563.9130859375
 10
411.6113281249999
 20
-563.9130859375
 10
411.658203125
 20
-564.455078125
 10
411.759765625
 20
-564.8486328125
 10
411.91552734375
 20
-565.0947265624999
 10
412.1884765625
 20
-565.5351562499999
 10
412.6816406249999
 20
-565.755859375
 10
413.3950195312499
 20
-565.755859375
 10
413.9482421874999
 20
-565.755859375
 10
414.39306640625
 20
-565.6074218749999
 10
414.72802734375
 20
-565.3105468749999
 10
415.0634765625
 20
-565.0146484375
 10
415.23095703125
 20
-564.6328125
 10
415.23095703125
 20
-564.1650390625
 10
415.23095703125
 20
-563.587890625
 10
415.0546874999999
 20
-563.1845703125
 10
414.70166015625
 20
-562.9541015625
 10
414.34912109375
 20
-562.724609375
 10
413.8588867187499
 20
-562.6093749999999
 10
413.2314453124999
 20
-562.6093749999999
 10
413.1611328125
 20
-562.6093749999999
 10
413.0898437499999
 20
-562.6103515625
 10
413.017578125
 20
-562.6123046875
 10
412.94580078125
 20
-562.6142578125
 10
412.87255859375
 20
-562.6171874999999
 10
412.79833984375
 20
-562.6210937499999
 10
412.79833984375
 20
-562.6210937499999
 10
412.79833984375
 20
-561.69140625
 10
412.79833984375
 20
-561.69140625
 10
412.90771484375
 20
-561.703125
 10
412.9990234374999
 20
-561.7109375
 10
413.0732421874999
 20
-561.71484375
 10
413.1474609375
 20
-561.71875
 10
413.2270507812499
 20
-561.720703125
 10
413.3129882812499
 20
-561.720703125
 10
413.70654296875
 20
-561.720703125
 10
414.0302734375
 20
-561.658203125
 10
414.28369140625
 20
-561.533203125
 10
414.72802734375
 20
-561.3154296874999
 10
414.9501953125
 20
-560.92578125
 10
414.9501953125
 20
-560.3642578125
 10
414.9501953125
 20
-559.9472656249999
 10
414.8022460937499
 20
-559.625
 10
414.5058593749999
 20
-559.3994140625
 10
414.20947265625
 20
-559.1728515625
 10
413.86474609375
 20
-559.0595703125
 10
413.4711914062499
 20
-559.0595703125
 10
412.76904296875
 20
-559.0595703125
 10
412.2836914062499
 20
-559.2939453125
 10
412.0151367187499
 20
-559.76171875
 10
411.86669921875
 20
-560.0185546875
 10
411.7827148437499
 20
-560.3857421875
 10
411.763671875
 20
-560.861328125
 10
411.763671875
 20
-560.861328125
 10
410.72265625
 20
-560.861328125
 10
410.72265625
 20
-560.861328125
 10
410.72265625
 20
-560.2373046874999
 10
410.8471679687499
 20
-559.70703125
 10
411.0966796875
 20
-559.2705078125
 10
411.5258789062499
 20
-558.4912109374999
 10
412.2797851562499
 20
-558.1005859374999
 10
413.35986328125
 20
-558.1005859374999
 10
414.21337890625
 20
-558.1005859374999
 10
414.87451171875
 20
-558.291015625
 10
415.34228515625
 20
-558.6708984374999
 10
415.81005859375
 20
-559.05078125
 10
416.0439453124999
 20
-559.6015624999999
 10
416.0439453124999
 20
-560.3232421875
 10
416.0439453124999
 20
-560.837890625
 10
415.9052734374999
 20
-561.2548828125
 10
415.6289062499999
 20
-561.57421875
 10
415.4570312499999
 20
-561.7734375
 10
415.23486328125
 20
-561.9287109375
 10
414.9619140625
 20
-562.0419921875
 10
415.40234375
 20
-562.1630859375
 10
415.7465820312499
 20
-562.3955078125
 10
415.9941406249999
 20
-562.7412109375
 10
416.24169921875
 20
-563.0859375
 10
416.36572265625
 20
-563.5078124999999
 10
416.36572265625
 20
-564.0068359375
 10
416.36572265625
 20
-564.8066406249999
 10
416.1025390625
 20
-565.4570312499999
 10
415.576171875
 20
-565.9599609375
 10
415.0498046874999
 20
-566.4628906249999
 10
414.30322265625
 20
-566.7148437499999
 10
413.33642578125
 20
-566.7148437499999
 10
412.34619140625
 20
-566.7148437499999
 10
411.6279296874999
 20
-566.4423828124999
 10
411.181640625
 20
-565.8984375
 97
        1
330
148
 75
     2
 76
     1
 98
        1
 10
0.0
 20
0.0
  0
ENDBLK
  5
145
330
142
100
AcDbEntity
  8
0
100
AcDbBlockEnd
  0
BLOCK
  5
14C
330
14A
100
AcDbEntity
  8
0
100
AcDbBlockBegin
  2
Block_23
 70
     0
 10
0.0
 20
0.0
 30
0.0
  3
Block_23
  1

  0
INSERT
  5
14F
330
14A
100
AcDbEntity
  8
Livello 1
100
AcDbBlockReference
  2
Block_24
 10
0.0
 20
0.0
 30
0.0
  0
ENDBLK
  5
14D
330
14A
100
AcDbEntity
  8
0
100
AcDbBlockEnd
  0
BLOCK
  5
150
330
14E
100
AcDbEntity
  8
0
100
AcDbBlockBegin
  2
Block_24
 70
     0
 10
0.0
 20
0.0
 30
0.0
  3
Block_24
  1

  0
SPLINE
  5
152
330
14E
100
AcDbEntity
  8
Livello 1
100
AcDbSpline
210
0.0
220
0.0
230
1.0
 70
    11
 71
     3
 72
    29
 73
    25
 74
     0
 42
0.0000000001
 43
0.0000000001
 40
0.0
 40
0.0
 40
0.0
 40
0.0
 40
1.0
 40
1.0
 40
1.0
 40
2.0
 40
2.0
 40
2.0
 40
3.0
 40
3.0
 40
3.0
 40
4.0
 40
4.0
 40
4.0
 40
5.0
 40
5.0
 40
5.0
 40
6.0
 40
6.0
 40
6.0
 40
7.0
 40
7.0
 40
7.0
 40
8.0
 40
8.0
 40
8.0
 40
8.0
 10
332.3017578125
 20
-428.5922851562499
 30
0.0
 10
332.3017578125
 20
-428.5922851562499
 30
0.0
 10
332.3017578125
 20
-427.78515625
 30
0.0
 10
332.3017578125
 20
-427.78515625
 30
0.0
 10
333.06201171875
 20
-427.7109375
 30
0.0
 10
333.59228515625
 20
-427.5874023437499
 30
0.0
 10
333.892578125
 20
-427.4140625
 30
0.0
 10
334.1923828125
 20
-427.240234375
 30
0.0
 10
334.41650390625
 20
-426.8300781249999
 30
0.0
 10
334.56494140625
 20
-426.1831054687499
 30
0.0
 10
334.56494140625
 20
-426.1831054687499
 30
0.0
 10
335.39501953125
 20
-426.1831054687499
 30
0.0
 10
335.39501953125
 20
-426.1831054687499
 30
0.0
 10
335.39501953125
 20
-426.1831054687499
 30
0.0
 10
335.39501953125
 20
-434.521484375
 30
0.0
 10
335.39501953125
 20
-434.521484375
 30
0.0
 10
335.39501953125
 20
-434.521484375
 30
0.0
 10
334.2724609375
 20
-434.521484375
 30
0.0
 10
334.2724609375
 20
-434.521484375
 30
0.0
 10
334.2724609375
 20
-434.521484375
 30
0.0
 10
334.2724609375
 20
-428.5922851562499
 30
0.0
 10
334.2724609375
 20
-428.5922851562499
 30
0.0
 10
334.2724609375
 20
-428.5922851562499
 30
0.0
 10
332.3017578125
 20
-428.5922851562499
 30
0.0
 10
332.3017578125
 20
-428.5922851562499
 30
0.0
  0
HATCH
  5
153
330
14E
100
AcDbEntity
  8
Livello 1
 62
   250
100
AcDbHatch
 10
0.0
 20
0.0
 30
0.0
210
0.0
220
0.0
230
1.0
  2
SOLID
 70
     1
 71
     1
 91
        1
 92
        1
 93
        1
 72
     4
 94
        3
 73
     0
 74
     0
 95
       29
 96
       25
 40
0.0
 40
0.0
 40
0.0
 40
0.0
 40
1.0
 40
1.0
 40
1.0
 40
2.0
 40
2.0
 40
2.0
 40
3.0
 40
3.0
 40
3.0
 40
4.0
 40
4.0
 40
4.0
 40
5.0
 40
5.0
 40
5.0
 40
6.0
 40
6.0
 40
6.0
 40
7.0
 40
7.0
 40
7.0
 40
8.0
 40
8.0
 40
8.0
 40
8.0
 10
332.3017578125
 20
-428.5922851562499
 10
332.3017578125
 20
-428.5922851562499
 10
332.3017578125
 20
-427.78515625
 10
332.3017578125
 20
-427.78515625
 10
333.06201171875
 20
-427.7109375
 10
333.59228515625
 20
-427.5874023437499
 10
333.892578125
 20
-427.4140625
 10
334.1923828125
 20
-427.240234375
 10
334.41650390625
 20
-426.8300781249999
 10
334.56494140625
 20
-426.1831054687499
 10
334.56494140625
 20
-426.1831054687499
 10
335.39501953125
 20
-426.1831054687499
 10
335.39501953125
 20
-426.1831054687499
 10
335.39501953125
 20
-426.1831054687499
 10
335.39501953125
 20
-434.521484375
 10
335.39501953125
 20
-434.521484375
 10
335.39501953125
 20
-434.521484375
 10
334.2724609375
 20
-434.521484375
 10
334.2724609375
 20
-434.521484375
 10
334.2724609375
 20
-434.521484375
 10
334.2724609375
 20
-428.5922851562499
 10
334.2724609375
 20
-428.5922851562499
 10
334.2724609375
 20
-428.5922851562499
 10
332.3017578125
 20
-428.5922851562499
 10
332.3017578125
 20
-428.5922851562499
 97
        1
330
152
 75
     2
 76
     1
 98
        1
 10
0.0
 20
0.0
  0
SPLINE
  5
154
330
14E
100
AcDbEntity
  8
Livello 1
100
AcDbSpline
210
0.0
220
0.0
230
1.0
 70
     9
 71
     3
 72
    29
 73
    25
 74
     0
 42
0.0000000001
 43
0.0000000001
 40
0.0
 40
0.0
 40
0.0
 40
0.0
 40
1.0
 40
1.0
 40
1.0
 40
2.0
 40
2.0
 40
2.0
 40
3.0
 40
3.0
 40
3.0
 40
4.0
 40
4.0
 40
4.0
 40
5.0
 40
5.0
 40
5.0
 40
6.0
 40
6.0
 40
6.0
 40
7.0
 40
7.0
 40
7.0
 40
8.0
 40
8.0
 40
8.0
 40
8.0
 10
342.3466796875
 20
-433.0654296875
 30
0.0
 10
342.6708984375
 20
-432.58203125
 30
0.0
 10
342.8330078125
 20
-431.681640625
 30
0.0
 10
342.8330078125
 20
-430.36376953125
 30
0.0
 10
342.8330078125
 20
-429.41259765625
 30
0.0
 10
342.7158203125
 20
-428.6298828125
 30
0.0
 10
342.4814453125
 20
-428.01611328125
 30
0.0
 10
342.24755859375
 20
-427.40234375
 30
0.0
 10
341.79248046875
 20
-427.0952148437499
 30
0.0
 10
341.11669921875
 20
-427.0952148437499
 30
0.0
 10
340.49609375
 20
-427.0952148437499
 30
0.0
 10
340.0419921875
 20
-427.38671875
 30
0.0
 10
339.7548828125
 20
-427.9692382812499
 30
0.0
 10
339.46826171875
 20
-428.55224609375
 30
0.0
 10
339.32470703125
 20
-429.4106445312499
 30
0.0
 10
339.32470703125
 20
-430.5454101562499
 30
0.0
 10
339.32470703125
 20
-431.39892578125
 30
0.0
 10
339.41650390625
 20
-432.0849609375
 30
0.0
 10
339.60009765625
 20
-432.6035156249999
 30
0.0
 10
339.880859375
 20
-433.39501953125
 30
0.0
 10
340.361328125
 20
-433.79052734375
 30
0.0
 10
341.04052734375
 20
-433.79052734375
 30
0.0
 10
341.58740234375
 20
-433.79052734375
 30
0.0
 10
342.02294921875
 20
-433.5488281249999
 30
0.0
 10
342.3466796875
 20
-433.0654296875
 30
0.0
  0
SPLINE
  5
155
330
14E
100
AcDbEntity
  8
Livello 1
100
AcDbSpline
210
0.0
220
0.0
230
1.0
 70
     9
 71
     3
 72
    29
 73
    25
 74
     0
 42
0.0000000001
 43
0.0000000001
 40
0.0
 40
0.0
 40
0.0
 40
0.0
 40
1.0
 40
1.0
 40
1.0
 40
2.0
 40
2.0
 40
2.0
 40
3.0
 40
3.0
 40
3.0
 40
4.0
 40
4.0
 40
4.0
 40
5.0
 40
5.0
 40
5.0
 40
6.0
 40
6.0
 40
6.0
 40
7.0
 40
7.0
 40
7.0
 40
8.0
 40
8.0
 40
8.0
 40
8.0
 10
343.40625
 20
-427.48681640625
 30
0.0
 10
343.7802734375
 20
-428.1767578124999
 30
0.0
 10
343.96728515625
 20
-429.1220703125
 30
0.0
 10
343.96728515625
 20
-430.32275390625
 30
0.0
 10
343.96728515625
 20
-431.4614257812499
 30
0.0
 10
343.7978515625
 20
-432.40283203125
 30
0.0
 10
343.458984375
 20
-433.1474609375
 30
0.0
 10
342.9677734375
 20
-434.2153320312499
 30
0.0
 10
342.16455078125
 20
-434.74951171875
 30
0.0
 10
341.0498046875
 20
-434.74951171875
 30
0.0
 10
340.0439453125
 20
-434.74951171875
 30
0.0
 10
339.29541015625
 20
-434.3129882812499
 30
0.0
 10
338.80419921875
 20
-433.439453125
 30
0.0
 10
338.39501953125
 20
-432.7109375
 30
0.0
 10
338.18994140625
 20
-431.732421875
 30
0.0
 10
338.18994140625
 20
-430.5043945312499
 30
0.0
 10
338.18994140625
 20
-429.55322265625
 30
0.0
 10
338.31298828125
 20
-428.736328125
 30
0.0
 10
338.55859375
 20
-428.05419921875
 30
0.0
 10
339.0185546875
 20
-426.783203125
 30
0.0
 10
339.85107421875
 20
-426.14794921875
 30
0.0
 10
341.0556640625
 20
-426.14794921875
 30
0.0
 10
342.13916015625
 20
-426.14794921875
 30
0.0
 10
342.9228515625
 20
-426.5942382812499
 30
0.0
 10
343.40625
 20
-427.48681640625
 30
0.0
  0
HATCH
  5
156
330
14E
100
AcDbEntity
  8
Livello 1
 62
   250
100
AcDbHatch
 10
0.0
 20
0.0
 30
0.0
210
0.0
220
0.0
230
1.0
  2
SOLID
 70
     1
 71
     1
 91
        2
 92
        1
 93
        1
 72
     4
 94
        3
 73
     0
 74
     0
 95
       29
 96
       25
 40
0.0
 40
0.0
 40
0.0
 40
0.0
 40
1.0
 40
1.0
 40
1.0
 40
2.0
 40
2.0
 40
2.0
 40
3.0
 40
3.0
 40
3.0
 40
4.0
 40
4.0
 40
4.0
 40
5.0
 40
5.0
 40
5.0
 40
6.0
 40
6.0
 40
6.0
 40
7.0
 40
7.0
 40
7.0
 40
8.0
 40
8.0
 40
8.0
 40
8.0
 10
342.3466796875
 20
-433.0654296875
 10
342.6708984375
 20
-432.58203125
 10
342.8330078125
 20
-431.681640625
 10
342.8330078125
 20
-430.36376953125
 10
342.8330078125
 20
-429.41259765625
 10
342.7158203125
 20
-428.6298828125
 10
342.4814453125
 20
-428.01611328125
 10
342.24755859375
 20
-427.40234375
 10
341.79248046875
 20
-427.0952148437499
 10
341.11669921875
 20
-427.0952148437499
 10
340.49609375
 20
-427.0952148437499
 10
340.0419921875
 20
-427.38671875
 10
339.7548828125
 20
-427.9692382812499
 10
339.46826171875
 20
-428.55224609375
 10
339.32470703125
 20
-429.4106445312499
 10
339.32470703125
 20
-430.5454101562499
 10
339.32470703125
 20
-431.39892578125
 10
339.41650390625
 20
-432.0849609375
 10
339.60009765625
 20
-432.6035156249999
 10
339.880859375
 20
-433.39501953125
 10
340.361328125
 20
-433.79052734375
 10
341.04052734375
 20
-433.79052734375
 10
341.58740234375
 20
-433.79052734375
 10
342.02294921875
 20
-433.5488281249999
 10
342.3466796875
 20
-433.0654296875
 97
        1
330
154
 92
        1
 93
        1
 72
     4
 94
        3
 73
     0
 74
     0
 95
       29
 96
       25
 40
0.0
 40
0.0
 40
0.0
 40
0.0
 40
1.0
 40
1.0
 40
1.0
 40
2.0
 40
2.0
 40
2.0
 40
3.0
 40
3.0
 40
3.0
 40
4.0
 40
4.0
 40
4.0
 40
5.0
 40
5.0
 40
5.0
 40
6.0
 40
6.0
 40
6.0
 40
7.0
 40
7.0
 40
7.0
 40
8.0
 40
8.0
 40
8.0
 40
8.0
 10
343.40625
 20
-427.48681640625
 10
343.7802734375
 20
-428.1767578124999
 10
343.96728515625
 20
-429.1220703125
 10
343.96728515625
 20
-430.32275390625
 10
343.96728515625
 20
-431.4614257812499
 10
343.7978515625
 20
-432.40283203125
 10
343.458984375
 20
-433.1474609375
 10
342.9677734375
 20
-434.2153320312499
 10
342.16455078125
 20
-434.74951171875
 10
341.0498046875
 20
-434.74951171875
 10
340.0439453125
 20
-434.74951171875
 10
339.29541015625
 20
-434.3129882812499
 10
338.80419921875
 20
-433.439453125
 10
338.39501953125
 20
-432.7109375
 10
338.18994140625
 20
-431.732421875
 10
338.18994140625
 20
-430.5043945312499
 10
338.18994140625
 20
-429.55322265625
 10
338.31298828125
 20
-428.736328125
 10
338.55859375
 20
-428.05419921875
 10
339.0185546875
 20
-426.783203125
 10
339.85107421875
 20
-426.14794921875
 10
341.0556640625
 20
-426.14794921875
 10
342.13916015625
 20
-426.14794921875
 10
342.9228515625
 20
-426.5942382812499
 10
343.40625
 20
-427.48681640625
 97
        1
330
155
 75
     2
 76
     1
 98
        1
 10
0.0
 20
0.0
  0
SPLINE
  5
157
330
14E
100
AcDbEntity
  8
Livello 1
100
AcDbSpline
210
0.0
220
0.0
230
1.0
 70
    11
 71
     3
 72
    29
 73
    25
 74
     0
 42
0.0000000001
 43
0.0000000001
 40
0.0
 40
0.0
 40
0.0
 40
0.0
 40
1.0
 40
1.0
 40
1.0
 40
2.0
 40
2.0
 40
2.0
 40
3.0
 40
3.0
 40
3.0
 40
4.0
 40
4.0
 40
4.0
 40
5.0
 40
5.0
 40
5.0
 40
6.0
 40
6.0
 40
6.0
 40
7.0
 40
7.0
 40
7.0
 40
8.0
 40
8.0
 40
8.0
 40
8.0
 10
345.62255859375
 20
-428.5922851562499
 30
0.0
 10
345.62255859375
 20
-428.5922851562499
 30
0.0
 10
345.62255859375
 20
-427.78515625
 30
0.0
 10
345.62255859375
 20
-427.78515625
 30
0.0
 10
346.3828125
 20
-427.7109375
 30
0.0
 10
346.9130859375
 20
-427.5874023437499
 30
0.0
 10
347.21337890625
 20
-427.4140625
 30
0.0
 10
347.51318359375
 20
-427.240234375
 30
0.0
 10
347.7373046875
 20
-426.8300781249999
 30
0.0
 10
347.8857421875
 20
-426.1831054687499
 30
0.0
 10
347.8857421875
 20
-426.1831054687499
 30
0.0
 10
348.7158203125
 20
-426.1831054687499
 30
0.0
 10
348.7158203125
 20
-426.1831054687499
 30
0.0
 10
348.7158203125
 20
-426.1831054687499
 30
0.0
 10
348.7158203125
 20
-434.521484375
 30
0.0
 10
348.7158203125
 20
-434.521484375
 30
0.0
 10
348.7158203125
 20
-434.521484375
 30
0.0
 10
347.59326171875
 20
-434.521484375
 30
0.0
 10
347.59326171875
 20
-434.521484375
 30
0.0
 10
347.59326171875
 20
-434.521484375
 30
0.0
 10
347.59326171875
 20
-428.5922851562499
 30
0.0
 10
347.59326171875
 20
-428.5922851562499
 30
0.0
 10
347.59326171875
 20
-428.5922851562499
 30
0.0
 10
345.62255859375
 20
-428.5922851562499
 30
0.0
 10
345.62255859375
 20
-428.5922851562499
 30
0.0
  0
HATCH
  5
158
330
14E
100
AcDbEntity
  8
Livello 1
 62
   250
100
AcDbHatch
 10
0.0
 20
0.0
 30
0.0
210
0.0
220
0.0
230
1.0
  2
SOLID
 70
     1
 71
     1
 91
        1
 92
        1
 93
        1
 72
     4
 94
        3
 73
     0
 74
     0
 95
       29
 96
       25
 40
0.0
 40
0.0
 40
0.0
 40
0.0
 40
1.0
 40
1.0
 40
1.0
 40
2.0
 40
2.0
 40
2.0
 40
3.0
 40
3.0
 40
3.0
 40
4.0
 40
4.0
 40
4.0
 40
5.0
 40
5.0
 40
5.0
 40
6.0
 40
6.0
 40
6.0
 40
7.0
 40
7.0
 40
7.0
 40
8.0
 40
8.0
 40
8.0
 40
8.0
 10
345.62255859375
 20
-428.5922851562499
 10
345.62255859375
 20
-428.5922851562499
 10
345.62255859375
 20
-427.78515625
 10
345.62255859375
 20
-427.78515625
 10
346.3828125
 20
-427.7109375
 10
346.9130859375
 20
-427.5874023437499
 10
347.21337890625
 20
-427.4140625
 10
347.51318359375
 20
-427.240234375
 10
347.7373046875
 20
-426.8300781249999
 10
347.8857421875
 20
-426.1831054687499
 10
347.8857421875
 20
-426.1831054687499
 10
348.7158203125
 20
-426.1831054687499
 10
348.7158203125
 20
-426.1831054687499
 10
348.7158203125
 20
-426.1831054687499
 10
348.7158203125
 20
-434.521484375
 10
348.7158203125
 20
-434.521484375
 10
348.7158203125
 20
-434.521484375
 10
347.59326171875
 20
-434.521484375
 10
347.59326171875
 20
-434.521484375
 10
347.59326171875
 20
-434.521484375
 10
347.59326171875
 20
-428.5922851562499
 10
347.59326171875
 20
-428.5922851562499
 10
347.59326171875
 20
-428.5922851562499
 10
345.62255859375
 20
-428.5922851562499
 10
345.62255859375
 20
-428.5922851562499
 97
        1
330
157
 75
     2
 76
     1
 98
        1
 10
0.0
 20
0.0
  0
ENDBLK
  5
151
330
14E
100
AcDbEntity
  8
0
100
AcDbBlockEnd
  0
BLOCK
  5
160
330
15E
100
AcDbEntity
  8
0
100
AcDbBlockBegin
  2
Block_25
 70
     0
 10
0.0
 20
0.0
 30
0.0
  3
Block_25
  1

  0
LWPOLYLINE
  5
162
330
15E
100
AcDbEntity
  8
Livello 1
 62
   250
370
    60
100
AcDbPolyline
 90
        4
 70
     1
 43
0.0
 10
44.37864262649691
 20
-460.2467380702274
 10
14.48207567869576
 20
-460.2467380702274
 10
14.48207567869576
 20
-430.350171122428
 10
44.37864262649691
 20
-430.350171122428
  0
INSERT
  5
164
330
15E
100
AcDbEntity
  8
Livello 1
100
AcDbBlockReference
  2
Block_26
 10
0.0
 20
0.0
 30
0.0
  0
ENDBLK
  5
161
330
15E
100
AcDbEntity
  8
0
100
AcDbBlockEnd
  0
BLOCK
  5
165
330
163
100
AcDbEntity
  8
0
100
AcDbBlockBegin
  2
Block_26
 70
     0
 10
0.0
 20
0.0
 30
0.0
  3
Block_26
  1

  0
INSERT
  5
168
330
163
100
AcDbEntity
  8
Livello 1
100
AcDbBlockReference
  2
Block_27
 10
0.0
 20
0.0
 30
0.0
  0
ENDBLK
  5
166
330
163
100
AcDbEntity
  8
0
100
AcDbBlockEnd
  0
BLOCK
  5
169
330
167
100
AcDbEntity
  8
0
100
AcDbBlockBegin
  2
Block_27
 70
     0
 10
0.0
 20
0.0
 30
0.0
  3
Block_27
  1

  0
SPLINE
  5
16B
330
167
100
AcDbEntity
  8
Livello 1
100
AcDbSpline
210
0.0
220
0.0
230
1.0
 70
    11
 71
     3
 72
    23
 73
    19
 74
     0
 42
0.0000000001
 43
0.0000000001
 40
0.0
 40
0.0
 40
0.0
 40
0.0
 40
1.0
 40
1.0
 40
1.0
 40
2.0
 40
2.0
 40
2.0
 40
3.0
 40
3.0
 40
3.0
 40
4.0
 40
4.0
 40
4.0
 40
5.0
 40
5.0
 40
5.0
 40
6.0
 40
6.0
 40
6.0
 40
6.0
 10
26.306640625
 20
-446.79541015625
 30
0.0
 10
26.306640625
 20
-446.79541015625
 30
0.0
 10
24.9892578125
 20
-442.9233398437499
 30
0.0
 10
24.9892578125
 20
-442.9233398437499
 30
0.0
 10
24.68994140625
 20
-442.04541015625
 30
0.0
 10
24.49072265625
 20
-441.2470703124999
 30
0.0
 10
24.291015625
 20
-440.46875
 30
0.0
 10
24.291015625
 20
-440.46875
 30
0.0
 10
24.2509765625
 20
-440.46875
 30
0.0
 10
24.2509765625
 20
-440.46875
 30
0.0
 10
24.05126953125
 20
-441.2670898437499
 30
0.0
 10
23.83203125
 20
-442.0849609374999
 30
0.0
 10
23.572265625
 20
-442.9033203124999
 30
0.0
 10
23.572265625
 20
-442.9033203124999
 30
0.0
 10
22.25537109375
 20
-446.79541015625
 30
0.0
 10
22.25537109375
 20
-446.79541015625
 30
0.0
 10
22.25537109375
 20
-446.79541015625
 30
0.0
 10
26.306640625
 20
-446.79541015625
 30
0.0
 10
26.306640625
 20
-446.79541015625
 30
0.0
  0
SPLINE
  5
16C
330
167
100
AcDbEntity
  8
Livello 1
100
AcDbSpline
210
0.0
220
0.0
230
1.0
 70
    11
 71
     3
 72
    29
 73
    25
 74
     0
 42
0.0000000001
 43
0.0000000001
 40
0.0
 40
0.0
 40
0.0
 40
0.0
 40
1.0
 40
1.0
 40
1.0
 40
2.0
 40
2.0
 40
2.0
 40
3.0
 40
3.0
 40
3.0
 40
4.0
 40
4.0
 40
4.0
 40
5.0
 40
5.0
 40
5.0
 40
6.0
 40
6.0
 40
6.0
 40
7.0
 40
7.0
 40
7.0
 40
8.0
 40
8.0
 40
8.0
 40
8.0
 10
21.89599609375
 20
-448.1523437499999
 30
0.0
 10
21.89599609375
 20
-448.1523437499999
 30
0.0
 10
20.4990234375
 20
-452.3837890624999
 30
0.0
 10
20.4990234375
 20
-452.3837890624999
 30
0.0
 10
20.4990234375
 20
-452.3837890624999
 30
0.0
 10
18.70263671875
 20
-452.3837890624999
 30
0.0
 10
18.70263671875
 20
-452.3837890624999
 30
0.0
 10
18.70263671875
 20
-452.3837890624999
 30
0.0
 10
23.27294921875
 20
-438.9316406249999
 30
0.0
 10
23.27294921875
 20
-438.9316406249999
 30
0.0
 10
23.27294921875
 20
-438.9316406249999
 30
0.0
 10
25.36865234375
 20
-438.9316406249999
 30
0.0
 10
25.36865234375
 20
-438.9316406249999
 30
0.0
 10
25.36865234375
 20
-438.9316406249999
 30
0.0
 10
29.958984375
 20
-452.3837890624999
 30
0.0
 10
29.958984375
 20
-452.3837890624999
 30
0.0
 10
29.958984375
 20
-452.3837890624999
 30
0.0
 10
28.10302734375
 20
-452.3837890624999
 30
0.0
 10
28.10302734375
 20
-452.3837890624999
 30
0.0
 10
28.10302734375
 20
-452.3837890624999
 30
0.0
 10
26.666015625
 20
-448.1523437499999
 30
0.0
 10
26.666015625
 20
-448.1523437499999
 30
0.0
 10
26.666015625
 20
-448.1523437499999
 30
0.0
 10
21.89599609375
 20
-448.1523437499999
 30
0.0
 10
21.89599609375
 20
-448.1523437499999
 30
0.0
  0
HATCH
  5
16D
330
167
100
AcDbEntity
  8
Livello 1
 62
   250
100
AcDbHatch
 10
0.0
 20
0.0
 30
0.0
210
0.0
220
0.0
230
1.0
  2
SOLID
 70
     1
 71
     1
 91
        2
 92
        1
 93
        1
 72
     4
 94
        3
 73
     0
 74
     0
 95
       23
 96
       19
 40
0.0
 40
0.0
 40
0.0
 40
0.0
 40
1.0
 40
1.0
 40
1.0
 40
2.0
 40
2.0
 40
2.0
 40
3.0
 40
3.0
 40
3.0
 40
4.0
 40
4.0
 40
4.0
 40
5.0
 40
5.0
 40
5.0
 40
6.0
 40
6.0
 40
6.0
 40
6.0
 10
26.306640625
 20
-446.79541015625
 10
26.306640625
 20
-446.79541015625
 10
24.9892578125
 20
-442.9233398437499
 10
24.9892578125
 20
-442.9233398437499
 10
24.68994140625
 20
-442.04541015625
 10
24.49072265625
 20
-441.2470703124999
 10
24.291015625
 20
-440.46875
 10
24.291015625
 20
-440.46875
 10
24.2509765625
 20
-440.46875
 10
24.2509765625
 20
-440.46875
 10
24.05126953125
 20
-441.2670898437499
 10
23.83203125
 20
-442.0849609374999
 10
23.572265625
 20
-442.9033203124999
 10
23.572265625
 20
-442.9033203124999
 10
22.25537109375
 20
-446.79541015625
 10
22.25537109375
 20
-446.79541015625
 10
22.25537109375
 20
-446.79541015625
 10
26.306640625
 20
-446.79541015625
 10
26.306640625
 20
-446.79541015625
 97
        1
330
16B
 92
        1
 93
        1
 72
     4
 94
        3
 73
     0
 74
     0
 95
       29
 96
       25
 40
0.0
 40
0.0
 40
0.0
 40
0.0
 40
1.0
 40
1.0
 40
1.0
 40
2.0
 40
2.0
 40
2.0
 40
3.0
 40
3.0
 40
3.0
 40
4.0
 40
4.0
 40
4.0
 40
5.0
 40
5.0
 40
5.0
 40
6.0
 40
6.0
 40
6.0
 40
7.0
 40
7.0
 40
7.0
 40
8.0
 40
8.0
 40
8.0
 40
8.0
 10
21.89599609375
 20
-448.1523437499999
 10
21.89599609375
 20
-448.1523437499999
 10
20.4990234375
 20
-452.3837890624999
 10
20.4990234375
 20
-452.3837890624999
 10
20.4990234375
 20
-452.3837890624999
 10
18.70263671875
 20
-452.3837890624999
 10
18.70263671875
 20
-452.3837890624999
 10
18.70263671875
 20
-452.3837890624999
 10
23.27294921875
 20
-438.9316406249999
 10
23.27294921875
 20
-438.9316406249999
 10
23.27294921875
 20
-438.9316406249999
 10
25.36865234375
 20
-438.9316406249999
 10
25.36865234375
 20
-438.9316406249999
 10
25.36865234375
 20
-438.9316406249999
 10
29.958984375
 20
-452.3837890624999
 10
29.958984375
 20
-452.3837890624999
 10
29.958984375
 20
-452.3837890624999
 10
28.10302734375
 20
-452.3837890624999
 10
28.10302734375
 20
-452.3837890624999
 10
28.10302734375
 20
-452.3837890624999
 10
26.666015625
 20
-448.1523437499999
 10
26.666015625
 20
-448.1523437499999
 10
26.666015625
 20
-448.1523437499999
 10
21.89599609375
 20
-448.1523437499999
 10
21.89599609375
 20
-448.1523437499999
 97
        1
330
16C
 75
     2
 76
     1
 98
        1
 10
0.0
 20
0.0
  0
SPLINE
  5
16E
330
167
100
AcDbEntity
  8
Livello 1
100
AcDbSpline
210
0.0
220
0.0
230
1.0
 70
    11
 71
     3
 72
    29
 73
    25
 74
     0
 42
0.0000000001
 43
0.0000000001
 40
0.0
 40
0.0
 40
0.0
 40
0.0
 40
1.0
 40
1.0
 40
1.0
 40
2.0
 40
2.0
 40
2.0
 40
3.0
 40
3.0
 40
3.0
 40
4.0
 40
4.0
 40
4.0
 40
5.0
 40
5.0
 40
5.0
 40
6.0
 40
6.0
 40
6.0
 40
7.0
 40
7.0
 40
7.0
 40
8.0
 40
8.0
 40
8.0
 40
8.0
 10
35.12890625
 20
-441.0473632812499
 30
0.0
 10
35.12890625
 20
-441.0473632812499
 30
0.0
 10
35.08935546875
 20
-441.0473632812499
 30
0.0
 10
35.08935546875
 20
-441.0473632812499
 30
0.0
 10
35.08935546875
 20
-441.0473632812499
 30
0.0
 10
32.833984375
 20
-442.2646484374999
 30
0.0
 10
32.833984375
 20
-442.2646484374999
 30
0.0
 10
32.833984375
 20
-442.2646484374999
 30
0.0
 10
32.49462890625
 20
-440.927734375
 30
0.0
 10
32.49462890625
 20
-440.927734375
 30
0.0
 10
32.49462890625
 20
-440.927734375
 30
0.0
 10
35.32861328125
 20
-439.41064453125
 30
0.0
 10
35.32861328125
 20
-439.41064453125
 30
0.0
 10
35.32861328125
 20
-439.41064453125
 30
0.0
 10
36.82568359375
 20
-439.41064453125
 30
0.0
 10
36.82568359375
 20
-439.41064453125
 30
0.0
 10
36.82568359375
 20
-439.41064453125
 30
0.0
 10
36.82568359375
 20
-452.3837890624999
 30
0.0
 10
36.82568359375
 20
-452.3837890624999
 30
0.0
 10
36.82568359375
 20
-452.3837890624999
 30
0.0
 10
35.12890625
 20
-452.3837890624999
 30
0.0
 10
35.12890625
 20
-452.3837890624999
 30
0.0
 10
35.12890625
 20
-452.3837890624999
 30
0.0
 10
35.12890625
 20
-441.0473632812499
 30
0.0
 10
35.12890625
 20
-441.0473632812499
 30
0.0
  0
HATCH
  5
16F
330
167
100
AcDbEntity
  8
Livello 1
 62
   250
100
AcDbHatch
 10
0.0
 20
0.0
 30
0.0
210
0.0
220
0.0
230
1.0
  2
SOLID
 70
     1
 71
     1
 91
        1
 92
        1
 93
        1
 72
     4
 94
        3
 73
     0
 74
     0
 95
       29
 96
       25
 40
0.0
 40
0.0
 40
0.0
 40
0.0
 40
1.0
 40
1.0
 40
1.0
 40
2.0
 40
2.0
 40
2.0
 40
3.0
 40
3.0
 40
3.0
 40
4.0
 40
4.0
 40
4.0
 40
5.0
 40
5.0
 40
5.0
 40
6.0
 40
6.0
 40
6.0
 40
7.0
 40
7.0
 40
7.0
 40
8.0
 40
8.0
 40
8.0
 40
8.0
 10
35.12890625
 20
-441.0473632812499
 10
35.12890625
 20
-441.0473632812499
 10
35.08935546875
 20
-441.0473632812499
 10
35.08935546875
 20
-441.0473632812499
 10
35.08935546875
 20
-441.0473632812499
 10
32.833984375
 20
-442.2646484374999
 10
32.833984375
 20
-442.2646484374999
 10
32.833984375
 20
-442.2646484374999
 10
32.49462890625
 20
-440.927734375
 10
32.49462890625
 20
-440.927734375
 10
32.49462890625
 20
-440.927734375
 10
35.32861328125
 20
-439.41064453125
 10
35.32861328125
 20
-439.41064453125
 10
35.32861328125
 20
-439.41064453125
 10
36.82568359375
 20
-439.41064453125
 10
36.82568359375
 20
-439.41064453125
 10
36.82568359375
 20
-439.41064453125
 10
36.82568359375
 20
-452.3837890624999
 10
36.82568359375
 20
-452.3837890624999
 10
36.82568359375
 20
-452.3837890624999
 10
35.12890625
 20
-452.3837890624999
 10
35.12890625
 20
-452.3837890624999
 10
35.12890625
 20
-452.3837890624999
 10
35.12890625
 20
-441.0473632812499
 10
35.12890625
 20
-441.0473632812499
 97
        1
330
16E
 75
     2
 76
     1
 98
        1
 10
0.0
 20
0.0
  0
ENDBLK
  5
16A
330
167
100
AcDbEntity
  8
0
100
AcDbBlockEnd
  0
BLOCK
  5
172
330
170
100
AcDbEntity
  8
0
100
AcDbBlockBegin
  2
Block_28
 70
     0
 10
0.0
 20
0.0
 30
0.0
  3
Block_28
  1

  0
LWPOLYLINE
  5
174
330
170
100
AcDbEntity
  8
Livello 1
 62
   250
370
    60
100
AcDbPolyline
 90
        4
 70
     1
 43
0.0
 10
573.1318961942161
 20
-460.2473140916845
 10
543.2353292464177
 20
-460.2473140916845
 10
543.2353292464177
 20
-430.3507471438852
 10
573.1318961942161
 20
-430.3507471438852
  0
INSERT
  5
176
330
170
100
AcDbEntity
  8
Livello 1
100
AcDbBlockReference
  2
Block_29
 10
0.0
 20
0.0
 30
0.0
  0
ENDBLK
  5
173
330
170
100
AcDbEntity
  8
0
100
AcDbBlockEnd
  0
BLOCK
  5
177
330
175
100
AcDbEntity
  8
0
100
AcDbBlockBegin
  2
Block_29
 70
     0
 10
0.0
 20
0.0
 30
0.0
  3
Block_29
  1

  0
INSERT
  5
17A
330
175
100
AcDbEntity
  8
Livello 1
100
AcDbBlockReference
  2
Block_30
 10
0.0
 20
0.0
 30
0.0
  0
ENDBLK
  5
178
330
175
100
AcDbEntity
  8
0
100
AcDbBlockEnd
  0
BLOCK
  5
17B
330
179
100
AcDbEntity
  8
0
100
AcDbBlockBegin
  2
Block_30
 70
     0
 10
0.0
 20
0.0
 30
0.0
  3
Block_30
  1

  0
SPLINE
  5
17D
330
179
100
AcDbEntity
  8
Livello 1
100
AcDbSpline
210
0.0
220
0.0
230
1.0
 70
    11
 71
     3
 72
    23
 73
    19
 74
     0
 42
0.0000000001
 43
0.0000000001
 40
0.0
 40
0.0
 40
0.0
 40
0.0
 40
1.0
 40
1.0
 40
1.0
 40
2.0
 40
2.0
 40
2.0
 40
3.0
 40
3.0
 40
3.0
 40
4.0
 40
4.0
 40
4.0
 40
5.0
 40
5.0
 40
5.0
 40
6.0
 40
6.0
 40
6.0
 40
6.0
 10
555.0576171874999
 20
-446.7963867187499
 30
0.0
 10
555.0576171874999
 20
-446.7963867187499
 30
0.0
 10
553.740234375
 20
-442.92431640625
 30
0.0
 10
553.740234375
 20
-442.92431640625
 30
0.0
 10
553.4404296875
 20
-442.04638671875
 30
0.0
 10
553.2412109375
 20
-441.248046875
 30
0.0
 10
553.041015625
 20
-440.4697265624999
 30
0.0
 10
553.041015625
 20
-440.4697265624999
 30
0.0
 10
553.0019531249999
 20
-440.4697265624999
 30
0.0
 10
553.0019531249999
 20
-440.4697265624999
 30
0.0
 10
552.8017578125
 20
-441.26806640625
 30
0.0
 10
552.58203125
 20
-442.0859375
 30
0.0
 10
552.3232421874999
 20
-442.904296875
 30
0.0
 10
552.3232421874999
 20
-442.904296875
 30
0.0
 10
551.005859375
 20
-446.7963867187499
 30
0.0
 10
551.005859375
 20
-446.7963867187499
 30
0.0
 10
551.005859375
 20
-446.7963867187499
 30
0.0
 10
555.0576171874999
 20
-446.7963867187499
 30
0.0
 10
555.0576171874999
 20
-446.7963867187499
 30
0.0
  0
SPLINE
  5
17E
330
179
100
AcDbEntity
  8
Livello 1
100
AcDbSpline
210
0.0
220
0.0
230
1.0
 70
    11
 71
     3
 72
    29
 73
    25
 74
     0
 42
0.0000000001
 43
0.0000000001
 40
0.0
 40
0.0
 40
0.0
 40
0.0
 40
1.0
 40
1.0
 40
1.0
 40
2.0
 40
2.0
 40
2.0
 40
3.0
 40
3.0
 40
3.0
 40
4.0
 40
4.0
 40
4.0
 40
5.0
 40
5.0
 40
5.0
 40
6.0
 40
6.0
 40
6.0
 40
7.0
 40
7.0
 40
7.0
 40
8.0
 40
8.0
 40
8.0
 40
8.0
 10
550.6464843749999
 20
-448.1533203125
 30
0.0
 10
550.6464843749999
 20
-448.1533203125
 30
0.0
 10
549.2490234375
 20
-452.384765625
 30
0.0
 10
549.2490234375
 20
-452.384765625
 30
0.0
 10
549.2490234375
 20
-452.384765625
 30
0.0
 10
547.453125
 20
-452.384765625
 30
0.0
 10
547.453125
 20
-452.384765625
 30
0.0
 10
547.453125
 20
-452.384765625
 30
0.0
 10
552.0234375
 20
-438.9326171875
 30
0.0
 10
552.0234375
 20
-438.9326171875
 30
0.0
 10
552.0234375
 20
-438.9326171875
 30
0.0
 10
554.119140625
 20
-438.9326171875
 30
0.0
 10
554.119140625
 20
-438.9326171875
 30
0.0
 10
554.119140625
 20
-438.9326171875
 30
0.0
 10
558.7099609375
 20
-452.384765625
 30
0.0
 10
558.7099609375
 20
-452.384765625
 30
0.0
 10
558.7099609375
 20
-452.384765625
 30
0.0
 10
556.853515625
 20
-452.384765625
 30
0.0
 10
556.853515625
 20
-452.384765625
 30
0.0
 10
556.853515625
 20
-452.384765625
 30
0.0
 10
555.416015625
 20
-448.1533203125
 30
0.0
 10
555.416015625
 20
-448.1533203125
 30
0.0
 10
555.416015625
 20
-448.1533203125
 30
0.0
 10
550.6464843749999
 20
-448.1533203125
 30
0.0
 10
550.6464843749999
 20
-448.1533203125
 30
0.0
  0
HATCH
  5
17F
330
179
100
AcDbEntity
  8
Livello 1
 62
   250
100
AcDbHatch
 10
0.0
 20
0.0
 30
0.0
210
0.0
220
0.0
230
1.0
  2
SOLID
 70
     1
 71
     1
 91
        2
 92
        1
 93
        1
 72
     4
 94
        3
 73
     0
 74
     0
 95
       23
 96
       19
 40
0.0
 40
0.0
 40
0.0
 40
0.0
 40
1.0
 40
1.0
 40
1.0
 40
2.0
 40
2.0
 40
2.0
 40
3.0
 40
3.0
 40
3.0
 40
4.0
 40
4.0
 40
4.0
 40
5.0
 40
5.0
 40
5.0
 40
6.0
 40
6.0
 40
6.0
 40
6.0
 10
555.0576171874999
 20
-446.7963867187499
 10
555.0576171874999
 20
-446.7963867187499
 10
553.740234375
 20
-442.92431640625
 10
553.740234375
 20
-442.92431640625
 10
553.4404296875
 20
-442.04638671875
 10
553.2412109375
 20
-441.248046875
 10
553.041015625
 20
-440.4697265624999
 10
553.041015625
 20
-440.4697265624999
 10
553.0019531249999
 20
-440.4697265624999
 10
553.0019531249999
 20
-440.4697265624999
 10
552.8017578125
 20
-441.26806640625
 10
552.58203125
 20
-442.0859375
 10
552.3232421874999
 20
-442.904296875
 10
552.3232421874999
 20
-442.904296875
 10
551.005859375
 20
-446.7963867187499
 10
551.005859375
 20
-446.7963867187499
 10
551.005859375
 20
-446.7963867187499
 10
555.0576171874999
 20
-446.7963867187499
 10
555.0576171874999
 20
-446.7963867187499
 97
        1
330
17D
 92
        1
 93
        1
 72
     4
 94
        3
 73
     0
 74
     0
 95
       29
 96
       25
 40
0.0
 40
0.0
 40
0.0
 40
0.0
 40
1.0
 40
1.0
 40
1.0
 40
2.0
 40
2.0
 40
2.0
 40
3.0
 40
3.0
 40
3.0
 40
4.0
 40
4.0
 40
4.0
 40
5.0
 40
5.0
 40
5.0
 40
6.0
 40
6.0
 40
6.0
 40
7.0
 40
7.0
 40
7.0
 40
8.0
 40
8.0
 40
8.0
 40
8.0
 10
550.6464843749999
 20
-448.1533203125
 10
550.6464843749999
 20
-448.1533203125
 10
549.2490234375
 20
-452.384765625
 10
549.2490234375
 20
-452.384765625
 10
549.2490234375
 20
-452.384765625
 10
547.453125
 20
-452.384765625
 10
547.453125
 20
-452.384765625
 10
547.453125
 20
-452.384765625
 10
552.0234375
 20
-438.9326171875
 10
552.0234375
 20
-438.9326171875
 10
552.0234375
 20
-438.9326171875
 10
554.119140625
 20
-438.9326171875
 10
554.119140625
 20
-438.9326171875
 10
554.119140625
 20
-438.9326171875
 10
558.7099609375
 20
-452.384765625
 10
558.7099609375
 20
-452.384765625
 10
558.7099609375
 20
-452.384765625
 10
556.853515625
 20
-452.384765625
 10
556.853515625
 20
-452.384765625
 10
556.853515625
 20
-452.384765625
 10
555.416015625
 20
-448.1533203125
 10
555.416015625
 20
-448.1533203125
 10
555.416015625
 20
-448.1533203125
 10
550.6464843749999
 20
-448.1533203125
 10
550.6464843749999
 20
-448.1533203125
 97
        1
330
17E
 75
     2
 76
     1
 98
        1
 10
0.0
 20
0.0
  0
SPLINE
  5
180
330
179
100
AcDbEntity
  8
Livello 1
100
AcDbSpline
210
0.0
220
0.0
230
1.0
 70
    11
 71
     3
 72
    47
 73
    43
 74
     0
 42
0.0000000001
 43
0.0000000001
 40
0.0
 40
0.0
 40
0.0
 40
0.0
 40
1.0
 40
1.0
 40
1.0
 40
2.0
 40
2.0
 40
2.0
 40
3.0
 40
3.0
 40
3.0
 40
4.0
 40
4.0
 40
4.0
 40
5.0
 40
5.0
 40
5.0
 40
6.0
 40
6.0
 40
6.0
 40
7.0
 40
7.0
 40
7.0
 40
8.0
 40
8.0
 40
8.0
 40
9.0
 40
9.0
 40
9.0
 40
10.0
 40
10.0
 40
10.0
 40
11.0
 40
11.0
 40
11.0
 40
12.0
 40
12.0
 40
12.0
 40
13.0
 40
13.0
 40
13.0
 40
14.0
 40
14.0
 40
14.0
 40
14.0
 10
560.0673828125
 20
-452.384765625
 30
0.0
 10
560.0673828125
 20
-452.384765625
 30
0.0
 10
560.0673828125
 20
-451.306640625
 30
0.0
 10
560.0673828125
 20
-451.306640625
 30
0.0
 10
560.0673828125
 20
-451.306640625
 30
0.0
 10
561.4443359375
 20
-449.9697265625
 30
0.0
 10
561.4443359375
 20
-449.9697265625
 30
0.0
 10
564.7578124999999
 20
-446.81640625
 30
0.0
 10
566.25390625
 20
-445.1396484375
 30
0.0
 10
566.2744140625
 20
-443.1840820312499
 30
0.0
 10
566.2744140625
 20
-441.86669921875
 30
0.0
 10
565.6357421874999
 20
-440.6494140625
 30
0.0
 10
563.6992187499999
 20
-440.6494140625
 30
0.0
 10
562.521484375
 20
-440.6494140625
 30
0.0
 10
561.5439453125
 20
-441.248046875
 30
0.0
 10
560.9453124999999
 20
-441.7470703124999
 30
0.0
 10
560.9453124999999
 20
-441.7470703124999
 30
0.0
 10
560.3867187499999
 20
-440.50927734375
 30
0.0
 10
560.3867187499999
 20
-440.50927734375
 30
0.0
 10
561.2841796875
 20
-439.7509765625
 30
0.0
 10
562.5615234375
 20
-439.1923828124999
 30
0.0
 10
564.05859375
 20
-439.1923828124999
 30
0.0
 10
566.8525390624999
 20
-439.1923828124999
 30
0.0
 10
568.0302734375
 20
-441.1083984374999
 30
0.0
 10
568.0302734375
 20
-442.9643554687499
 30
0.0
 10
568.0302734375
 20
-445.359375
 30
0.0
 10
566.2939453125
 20
-447.29541015625
 30
0.0
 10
563.5595703125
 20
-449.9296874999999
 30
0.0
 10
563.5595703125
 20
-449.9296874999999
 30
0.0
 10
562.521484375
 20
-450.8876953125
 30
0.0
 10
562.521484375
 20
-450.8876953125
 30
0.0
 10
562.521484375
 20
-450.8876953125
 30
0.0
 10
562.521484375
 20
-450.927734375
 30
0.0
 10
562.521484375
 20
-450.927734375
 30
0.0
 10
562.521484375
 20
-450.927734375
 30
0.0
 10
568.349609375
 20
-450.927734375
 30
0.0
 10
568.349609375
 20
-450.927734375
 30
0.0
 10
568.349609375
 20
-450.927734375
 30
0.0
 10
568.349609375
 20
-452.384765625
 30
0.0
 10
568.349609375
 20
-452.384765625
 30
0.0
 10
568.349609375
 20
-452.384765625
 30
0.0
 10
560.0673828125
 20
-452.384765625
 30
0.0
 10
560.0673828125
 20
-452.384765625
 30
0.0
  0
HATCH
  5
181
330
179
100
AcDbEntity
  8
Livello 1
 62
   250
100
AcDbHatch
 10
0.0
 20
0.0
 30
0.0
210
0.0
220
0.0
230
1.0
  2
SOLID
 70
     1
 71
     1
 91
        1
 92
        1
 93
        1
 72
     4
 94
        3
 73
     0
 74
     0
 95
       47
 96
       43
 40
0.0
 40
0.0
 40
0.0
 40
0.0
 40
1.0
 40
1.0
 40
1.0
 40
2.0
 40
2.0
 40
2.0
 40
3.0
 40
3.0
 40
3.0
 40
4.0
 40
4.0
 40
4.0
 40
5.0
 40
5.0
 40
5.0
 40
6.0
 40
6.0
 40
6.0
 40
7.0
 40
7.0
 40
7.0
 40
8.0
 40
8.0
 40
8.0
 40
9.0
 40
9.0
 40
9.0
 40
10.0
 40
10.0
 40
10.0
 40
11.0
 40
11.0
 40
11.0
 40
12.0
 40
12.0
 40
12.0
 40
13.0
 40
13.0
 40
13.0
 40
14.0
 40
14.0
 40
14.0
 40
14.0
 10
560.0673828125
 20
-452.384765625
 10
560.0673828125
 20
-452.384765625
 10
560.0673828125
 20
-451.306640625
 10
560.0673828125
 20
-451.306640625
 10
560.0673828125
 20
-451.306640625
 10
561.4443359375
 20
-449.9697265625
 10
561.4443359375
 20
-449.9697265625
 10
564.7578124999999
 20
-446.81640625
 10
566.25390625
 20
-445.1396484375
 10
566.2744140625
 20
-443.1840820312499
 10
566.2744140625
 20
-441.86669921875
 10
565.6357421874999
 20
-440.6494140625
 10
563.6992187499999
 20
-440.6494140625
 10
562.521484375
 20
-440.6494140625
 10
561.5439453125
 20
-441.248046875
 10
560.9453124999999
 20
-441.7470703124999
 10
560.9453124999999
 20
-441.7470703124999
 10
560.3867187499999
 20
-440.50927734375
 10
560.3867187499999
 20
-440.50927734375
 10
561.2841796875
 20
-439.7509765625
 10
562.5615234375
 20
-439.1923828124999
 10
564.05859375
 20
-439.1923828124999
 10
566.8525390624999
 20
-439.1923828124999
 10
568.0302734375
 20
-441.1083984374999
 10
568.0302734375
 20
-442.9643554687499
 10
568.0302734375
 20
-445.359375
 10
566.2939453125
 20
-447.29541015625
 10
563.5595703125
 20
-449.9296874999999
 10
563.5595703125
 20
-449.9296874999999
 10
562.521484375
 20
-450.8876953125
 10
562.521484375
 20
-450.8876953125
 10
562.521484375
 20
-450.8876953125
 10
562.521484375
 20
-450.927734375
 10
562.521484375
 20
-450.927734375
 10
562.521484375
 20
-450.927734375
 10
568.349609375
 20
-450.927734375
 10
568.349609375
 20
-450.927734375
 10
568.349609375
 20
-450.927734375
 10
568.349609375
 20
-452.384765625
 10
568.349609375
 20
-452.384765625
 10
568.349609375
 20
-452.384765625
 10
560.0673828125
 20
-452.384765625
 10
560.0673828125
 20
-452.384765625
 97
        1
330
180
 75
     2
 76
     1
 98
        1
 10
0.0
 20
0.0
  0
ENDBLK
  5
17C
330
179
100
AcDbEntity
  8
0
100
AcDbBlockEnd
  0
ENDSEC
  0
SECTION
  2
ENTITIES
  0
INSERT
  5
7A
330
70
100
AcDbEntity
  8
Livello 1
100
AcDbBlockReference
  2
Block_0
 10
0.0
 20
0.0
 30
0.0
  0
ENDSEC
  0
SECTION
  2
OBJECTS
  0
DICTIONARY
  5
C
330
0
100
AcDbDictionary
281
     1
  3
ACAD_COLOR
350
63
  3
ACAD_DETAILVIEWSTYLE
350
6A
  3
ACAD_GROUP
350
D
  3
ACAD_LAYOUT
350
62
  3
ACAD_MATERIAL
350
10
  3
ACAD_MLEADERSTYLE
350
66
  3
ACAD_MLINESTYLE
350
5F
  3
ACAD_PLOTSETTINGS
350
61
  3
ACAD_PLOTSTYLENAME
350
E
  3
ACAD_SCALELIST
350
42
  3
ACAD_SECTIONVIEWSTYLE
350
68
  3
ACAD_TABLESTYLE
350
64
  3
ACAD_VISUALSTYLE
350
29
  3
ACDB_RECOMPOSE_DATA
350
193
  3
AcDbVariableDictionary
350
182
  0
DICTIONARY
  5
63
102
{ACAD_REACTORS
330
C
102
}
330
C
100
AcDbDictionary
281
     1
  0
DICTIONARY
  5
6A
102
{ACAD_REACTORS
330
C
102
}
330
C
100
AcDbDictionary
281
     1
  3
Imperial24
350
6B
  0
DICTIONARY
  5
D
102
{ACAD_REACTORS
330
C
102
}
330
C
100
AcDbDictionary
281
     1
  0
DICTIONARY
  5
62
102
{ACAD_REACTORS
330
C
102
}
330
C
100
AcDbDictionary
281
     1
  3
Layout1
350
6F
  3
Layout2
350
77
  3
Model
350
73
  0
DICTIONARY
  5
10
102
{ACAD_REACTORS
330
C
102
}
330
C
100
AcDbDictionary
281
     1
  3
ByBlock
350
19
  3
ByLayer
350
11
  3
Global
350
21
  0
DICTIONARY
  5
66
102
{ACAD_REACTORS
330
C
102
}
330
C
100
AcDbDictionary
281
     1
  3
Standard
350
67
  0
DICTIONARY
  5
5F
102
{ACAD_REACTORS
330
C
102
}
330
C
100
AcDbDictionary
281
     1
  3
Standard
350
60
  0
DICTIONARY
  5
61
102
{ACAD_REACTORS
330
C
102
}
330
C
100
AcDbDictionary
281
     1
  0
ACDBDICTIONARYWDFLT
  5
E
102
{ACAD_REACTORS
330
C
102
}
330
C
100
AcDbDictionary
281
     1
  3
Normal
350
F
100
AcDbDictionaryWithDefault
340
F
  0
DICTIONARY
  5
42
102
{ACAD_REACTORS
330
C
102
}
330
C
100
AcDbDictionary
281
     1
  3
A0
350
43
  3
A1
350
44
  3
A2
350
45
  3
A3
350
46
  3
A4
350
47
  3
A5
350
48
  3
A6
350
49
  3
A7
350
4A
  3
A8
350
4B
  3
A9
350
4C
  3
B0
350
4D
  3
B1
350
4E
  3
B2
350
4F
  3
B3
350
50
  3
B4
350
51
  3
B5
350
52
  3
B6
350
53
  0
DICTIONARY
  5
68
102
{ACAD_REACTORS
330
C
102
}
330
C
100
AcDbDictionary
281
     1
  3
Imperial24
350
69
  0
DICTIONARY
  5
64
102
{ACAD_REACTORS
330
C
102
}
330
C
100
AcDbDictionary
281
     1
  3
Standard
350
65
  0
DICTIONARY
  5
29
102
{ACAD_REACTORS
330
C
102
}
330
C
100
AcDbDictionary
281
     1
  3
2dWireframe
350
2F
  3
Basic
350
2E
  3
Brighten
350
35
  3
ColorChange
350
39
  3
Conceptual
350
32
  3
Dim
350
34
  3
EdgeColorOff
350
41
  3
Facepattern
350
38
  3
Flat
350
2A
  3
FlatWithEdges
350
2B
  3
Gouraud
350
2C
  3
GouraudWithEdges
350
2D
  3
Hidden
350
31
  3
JitterOff
350
3F
  3
Linepattern
350
37
  3
OverhangOff
350
40
  3
Realistic
350
33
  3
Shaded
350
3E
  3
Shaded with edges
350
3D
  3
Shades of Gray
350
3A
  3
Sketchy
350
3B
  3
Thicken
350
36
  3
Wireframe
350
30
  3
X-Ray
350
3C
  0
XRECORD
  5
193
102
{ACAD_REACTORS
330
C
102
}
330
C
100
AcDbXrecord
280
     1
 90
        1
330
65
  0
DICTIONARY
  5
182
102
{ACAD_REACTORS
330
C
102
}
330
C
100
AcDbDictionary
281
     1
  3
CANNOSCALE
350
188
  3
CMLEADERSTYLE
350
184
  3
CTABLESTYLE
350
183
  3
CVIEWDETAILSTYLE
350
185
  3
CVIEWSECTIONSTYLE
350
186
  3
DIMASSOC
350
18F
  3
HIDETEXT
350
18E
  3
INDEXCTL
350
18D
  3
LAYEREVAL
350
18A
  3
LAYERNOTIFY
350
18B
  3
LIGHTINGUNITS
350
189
  3
MSLTSCALE
350
187
  3
SORTENTS
350
18C
  3
XCLIPFRAME
350
190
  0
ACDBDETAILVIEWSTYLE
  5
6B
102
{ACAD_XDICTIONARY
360
1CD
102
}
102
{ACAD_REACTORS
330
6A
102
}
330
6A
100
AcDbModelDocViewStyle
 70
     0
  3
Imperial24
290
     0
100
AcDbDetailViewStyle
 70
     0
 71
     0
 90
        3
 71
     1
340
55
 40
0.24
340
0
 40
0.24
300

 40
0.36
280
     3
 71
     2
340
5D
 90
       25
 71
     3
340
55
 40
0.24
 90
        1
 40
0.75
 90
        1
300
%<\AcVar ViewType \f "%tc1">% %<\AcVar ViewDetailId>%\PSCALE %<\AcVar ViewScale \f "%sn">%
 71
     4
340
5D
 90
       25
340
5D
 90
       25
280
     0
  0
LAYOUT
  5
6F
102
{ACAD_XDICTIONARY
360
1CF
102
}
102
{ACAD_REACTORS
330
62
102
}
330
62
100
AcDbPlotSettings
  1

  2

  4

  6

 40
0.0
 41
0.0
 42
0.0
 43
0.0
 44
0.0
 45
0.0
 46
0.0
 47
0.0
 48
0.0
 49
0.0
140
0.0
141
0.0
142
1.0
143
1.0
 70
   688
 72
     0
 73
     0
 74
     5
  7

 75
    16
147
1.0
148
0.0
149
0.0
100
AcDbLayout
  1
Layout1
 70
     1
 71
     1
 10
0.0
 20
0.0
 11
12.0
 21
9.0
 12
0.0
 22
0.0
 32
0.0
 14
0.0
 24
0.0
 34
0.0
 15
0.0
 25
0.0
 35
0.0
146
0.0
 13
0.0
 23
0.0
 33
0.0
 16
1.0
 26
0.0
 36
0.0
 17
0.0
 27
1.0
 37
0.0
 76
     0
330
6C
  0
LAYOUT
  5
77
102
{ACAD_XDICTIONARY
360
1D3
102
}
102
{ACAD_REACTORS
330
62
102
}
330
62
100
AcDbPlotSettings
  1

  2

  4

  6

 40
0.0
 41
0.0
 42
0.0
 43
0.0
 44
0.0
 45
0.0
 46
0.0
 47
0.0
 48
0.0
 49
0.0
140
0.0
141
0.0
142
1.0
143
1.0
 70
   688
 72
     0
 73
     0
 74
     5
  7

 75
    16
147
1.0
148
0.0
149
0.0
100
AcDbLayout
  1
Layout2
 70
     1
 71
     2
 10
0.0
 20
0.0
 11
12.0
 21
9.0
 12
0.0
 22
0.0
 32
0.0
 14
0.0
 24
0.0
 34
0.0
 15
0.0
 25
0.0
 35
0.0
146
0.0
 13
0.0
 23
0.0
 33
0.0
 16
1.0
 26
0.0
 36
0.0
 17
0.0
 27
1.0
 37
0.0
 76
     0
330
74
  0
LAYOUT
  5
73
102
{ACAD_XDICTIONARY
360
1D1
102
}
102
{ACAD_REACTORS
330
62
102
}
330
62
100
AcDbPlotSettings
  1

  2

  4

  6

 40
0.0
 41
0.0
 42
0.0
 43
0.0
 44
0.0
 45
0.0
 46
0.0
 47
0.0
 48
0.0
 49
0.0
140
0.0
141
0.0
142
1.0
143
1.0
 70
  1712
 72
     0
 73
     0
 74
     0
  7

 75
     0
147
1.0
148
0.0
149
0.0
100
AcDbLayout
  1
Model
 70
     1
 71
     0
 10
0.0
 20
0.0
 11
12.0
 21
9.0
 12
0.0
 22
0.0
 32
0.0
 14
0.0
 24
0.0
 34
0.0
 15
0.0
 25
0.0
 35
0.0
146
0.0
 13
0.0
 23
0.0
 33
0.0
 16
1.0
 26
0.0
 36
0.0
 17
0.0
 27
1.0
 37
0.0
 76
     0
330
70
  0
MATERIAL
  5
19
102
{ACAD_XDICTIONARY
360
1A
102
}
102
{ACAD_REACTORS
330
10
102
}
330
10
100
AcDbMaterial
  1
ByBlock
 72
     0
 43
0.0208333333333333
 43
0.0
 43
0.0
 43
0.0
 43
0.0
 43
0.0208333333333333
 43
0.0
 43
0.0
 43
0.0
 43
0.0
 43
1.0
 43
0.0
 43
0.0
 43
0.0
 43
0.0
 43
1.0
 77
     0
 47
0.0208333333333333
 47
0.0
 47
0.0
 47
0.0
 47
0.0
 47
0.0208333333333333
 47
0.0
 47
0.0
 47
0.0
 47
0.0
 47
1.0
 47
0.0
 47
0.0
 47
0.0
 47
0.0
 47
1.0
171
     0
 49
0.0208333333333333
 49
0.0
 49
0.0
 49
0.0
 49
0.0
 49
0.0208333333333333
 49
0.0
 49
0.0
 49
0.0
 49
0.0
 49
1.0
 49
0.0
 49
0.0
 49
0.0
 49
0.0
 49
1.0
175
     0
142
0.0208333333333333
142
0.0
142
0.0
142
0.0
142
0.0
142
0.0208333333333333
142
0.0
142
0.0
142
0.0
142
0.0
142
1.0
142
0.0
142
0.0
142
0.0
142
0.0
142
1.0
179
     0
144
0.0208333333333333
144
0.0
144
0.0
144
0.0
144
0.0
144
0.0208333333333333
144
0.0
144
0.0
144
0.0
144
0.0
144
1.0
144
0.0
144
0.0
144
0.0
144
0.0
144
1.0
147
0.0208333333333333
147
0.0
147
0.0
147
0.0
147
0.0
147
0.0208333333333333
147
0.0
147
0.0
147
0.0
147
0.0
147
1.0
147
0.0
147
0.0
147
0.0
147
0.0
147
1.0
  0
MATERIAL
  5
11
102
{ACAD_XDICTIONARY
360
12
102
}
102
{ACAD_REACTORS
330
10
102
}
330
10
100
AcDbMaterial
  1
ByLayer
 72
     0
 43
0.0208333333333333
 43
0.0
 43
0.0
 43
0.0
 43
0.0
 43
0.0208333333333333
 43
0.0
 43
0.0
 43
0.0
 43
0.0
 43
1.0
 43
0.0
 43
0.0
 43
0.0
 43
0.0
 43
1.0
 77
     0
 47
0.0208333333333333
 47
0.0
 47
0.0
 47
0.0
 47
0.0
 47
0.0208333333333333
 47
0.0
 47
0.0
 47
0.0
 47
0.0
 47
1.0
 47
0.0
 47
0.0
 47
0.0
 47
0.0
 47
1.0
171
     0
 49
0.0208333333333333
 49
0.0
 49
0.0
 49
0.0
 49
0.0
 49
0.0208333333333333
 49
0.0
 49
0.0
 49
0.0
 49
0.0
 49
1.0
 49
0.0
 49
0.0
 49
0.0
 49
0.0
 49
1.0
175
     0
142
0.0208333333333333
142
0.0
142
0.0
142
0.0
142
0.0
142
0.0208333333333333
142
0.0
142
0.0
142
0.0
142
0.0
142
1.0
142
0.0
142
0.0
142
0.0
142
0.0
142
1.0
179
     0
144
0.0208333333333333
144
0.0
144
0.0
144
0.0
144
0.0
144
0.0208333333333333
144
0.0
144
0.0
144
0.0
144
0.0
144
1.0
144
0.0
144
0.0
144
0.0
144
0.0
144
1.0
147
0.0208333333333333
147
0.0
147
0.0
147
0.0
147
0.0
147
0.0208333333333333
147
0.0
147
0.0
147
0.0
147
0.0
147
1.0
147
0.0
147
0.0
147
0.0
147
0.0
147
1.0
  0
MATERIAL
  5
21
102
{ACAD_XDICTIONARY
360
22
102
}
102
{ACAD_REACTORS
330
10
102
}
330
10
100
AcDbMaterial
  1
Global
 72
     0
 43
0.0208333333333333
 43
0.0
 43
0.0
 43
0.0
 43
0.0
 43
0.0208333333333333
 43
0.0
 43
0.0
 43
0.0
 43
0.0
 43
1.0
 43
0.0
 43
0.0
 43
0.0
 43
0.0
 43
1.0
 77
     0
 47
0.0208333333333333
 47
0.0
 47
0.0
 47
0.0
 47
0.0
 47
0.0208333333333333
 47
0.0
 47
0.0
 47
0.0
 47
0.0
 47
1.0
 47
0.0
 47
0.0
 47
0.0
 47
0.0
 47
1.0
171
     0
 49
0.0208333333333333
 49
0.0
 49
0.0
 49
0.0
 49
0.0
 49
0.0208333333333333
 49
0.0
 49
0.0
 49
0.0
 49
0.0
 49
1.0
 49
0.0
 49
0.0
 49
0.0
 49
0.0
 49
1.0
175
     0
142
0.0208333333333333
142
0.0
142
0.0
142
0.0
142
0.0
142
0.0208333333333333
142
0.0
142
0.0
142
0.0
142
0.0
142
1.0
142
0.0
142
0.0
142
0.0
142
0.0
142
1.0
179
     0
144
0.0208333333333333
144
0.0
144
0.0
144
0.0
144
0.0
144
0.0208333333333333
144
0.0
144
0.0
144
0.0
144
0.0
144
1.0
144
0.0
144
0.0
144
0.0
144
0.0
144
1.0
147
0.0208333333333333
147
0.0
147
0.0
147
0.0
147
0.0
147
0.0208333333333333
147
0.0
147
0.0
147
0.0
147
0.0
147
1.0
147
0.0
147
0.0
147
0.0
147
0.0
147
1.0
  0
MLEADERSTYLE
  5
67
102
{ACAD_XDICTIONARY
360
1C9
102
}
102
{ACAD_REACTORS
330
66
102
}
330
66
100
AcDbMLeaderStyle
170
     2
171
     1
172
     0
 90
        2
 40
0.0
 41
0.0
173
     1
 91
-1056964608
340
5B
 92
       -2
290
     1
 42
0.09
291
     1
 43
0.36
  3
Standard
 44
0.18
300

342
55
174
     1
178
     6
175
     1
176
     0
 93
-1056964608
 45
0.18
292
     0
297
     0
 46
0.18
 94
-1056964608
 47
1.0
 49
1.0
140
1.0
293
     1
141
0.0
294
     1
177
     0
142
1.0
295
     0
296
     0
143
0.125
1001
ACAD_MLEADERVER
1070
     2
  0
MLINESTYLE
  5
60
102
{ACAD_REACTORS
330
5F
102
}
330
5F
100
AcDbMlineStyle
  2
STANDARD
 70
     0
  3

 62
   256
 51
90.0
 52
90.0
 71
     2
 49
0.5
 62
   256
  6
BYLAYER
 49
-0.5
 62
   256
  6
BYLAYER
  0
ACDBPLACEHOLDER
  5
F
102
{ACAD_REACTORS
330
E
102
}
330
E
  0
SCALE
  5
43
102
{ACAD_REACTORS
330
42
102
}
330
42
100
AcDbScale
 70
     0
300
1:1
140
1.0
141
1.0
290
     1
  0
SCALE
  5
44
102
{ACAD_REACTORS
330
42
102
}
330
42
100
AcDbScale
 70
     0
300
1/128" = 1'-0"
140
0.0078125
141
12.0
290
     0
  0
SCALE
  5
45
102
{ACAD_REACTORS
330
42
102
}
330
42
100
AcDbScale
 70
     0
300
1/64" = 1'-0"
140
0.015625
141
12.0
290
     0
  0
SCALE
  5
46
102
{ACAD_REACTORS
330
42
102
}
330
42
100
AcDbScale
 70
     0
300
1/32" = 1'-0"
140
0.03125
141
12.0
290
     0
  0
SCALE
  5
47
102
{ACAD_REACTORS
330
42
102
}
330
42
100
AcDbScale
 70
     0
300
1/16" = 1'-0"
140
0.0625
141
12.0
290
     0
  0
SCALE
  5
48
102
{ACAD_REACTORS
330
42
102
}
330
42
100
AcDbScale
 70
     0
300
3/32" = 1'-0"
140
0.09375
141
12.0
290
     0
  0
SCALE
  5
49
102
{ACAD_REACTORS
330
42
102
}
330
42
100
AcDbScale
 70
     0
300
1/8" = 1'-0"
140
0.125
141
12.0
290
     0
  0
SCALE
  5
4A
102
{ACAD_REACTORS
330
42
102
}
330
42
100
AcDbScale
 70
     0
300
3/16" = 1'-0"
140
0.1875
141
12.0
290
     0
  0
SCALE
  5
4B
102
{ACAD_REACTORS
330
42
102
}
330
42
100
AcDbScale
 70
     0
300
1/4" = 1'-0"
140
0.25
141
12.0
290
     0
  0
SCALE
  5
4C
102
{ACAD_REACTORS
330
42
102
}
330
42
100
AcDbScale
 70
     0
300
3/8" = 1'-0"
140
0.375
141
12.0
290
     0
  0
SCALE
  5
4D
102
{ACAD_REACTORS
330
42
102
}
330
42
100
AcDbScale
 70
     0
300
1/2" = 1'-0"
140
0.5
141
12.0
290
     0
  0
SCALE
  5
4E
102
{ACAD_REACTORS
330
42
102
}
330
42
100
AcDbScale
 70
     0
300
3/4" = 1'-0"
140
0.75
141
12.0
290
     0
  0
SCALE
  5
4F
102
{ACAD_REACTORS
330
42
102
}
330
42
100
AcDbScale
 70
     0
300
1" = 1'-0"
140
1.0
141
12.0
290
     0
  0
SCALE
  5
50
102
{ACAD_REACTORS
330
42
102
}
330
42
100
AcDbScale
 70
     0
300
1-1/2" = 1'-0"
140
1.5
141
12.0
290
     0
  0
SCALE
  5
51
102
{ACAD_REACTORS
330
42
102
}
330
42
100
AcDbScale
 70
     0
300
3" = 1'-0"
140
3.0
141
12.0
290
     0
  0
SCALE
  5
52
102
{ACAD_REACTORS
330
42
102
}
330
42
100
AcDbScale
 70
     0
300
6" = 1'-0"
140
6.0
141
12.0
290
     0
  0
SCALE
  5
53
102
{ACAD_REACTORS
330
42
102
}
330
42
100
AcDbScale
 70
     0
300
1'-0" = 1'-0"
140
12.0
141
12.0
290
     0
  0
ACDBSECTIONVIEWSTYLE
  5
69
102
{ACAD_XDICTIONARY
360
1CB
102
}
102
{ACAD_REACTORS
330
68
102
}
330
68
100
AcDbModelDocViewStyle
 70
     0
  3
Imperial24
290
     0
100
AcDbSectionViewStyle
 70
     0
 71
     0
 90
       78
 71
     1
340
55
 40
0.24
340
0
340
0
 40
0.24
300
I, O, Q, S, X, Z
 40
0.48
 90
        3
 40
0.18
 90
        1
 71
     2
340
5D
 90
       25
340
5D
 90
       50
 40
0.24
 40
0.0
 40
0.24
 71
     3
340
55
 40
0.24
 90
        1
 40
0.75
 90
        1
300
%<\AcVar ViewType \f "%tc1">% %<\AcVar ViewSectionStartId>%-%<\AcVar ViewSectionEndId>%\PSCALE %<\AcVar ViewScale \f "%sn">%
 71
     4
300
ANSI31
 40
1.0
 90
        0
290
     0
290
     0
 90
        6
 40
0.0
 40
1.570796326794896
 40
0.2617993877991494
 40
1.308996938995747
 40
-0.2617993877991494
 40
1.832595714594046
  0
TABLESTYLE
  5
65
102
{ACAD_XDICTIONARY
360
191
102
}
102
{ACAD_REACTORS
330
64
102
}
330
64
100
AcDbTableStyle
  3
Standard
 70
     0
 71
     0
 40
0.06
 41
0.06
280
     0
281
     0
  7
Standard
140
0.18
170
     2
 62
     0
 63
     7
283
     0
274
    -2
284
     1
 64
     0
275
    -2
285
     1
 65
     0
276
    -2
286
     1
 66
     0
277
    -2
287
     1
 67
     0
278
    -2
288
     1
 68
     0
279
    -2
289
     1
 69
     0
  7
Standard
140
0.25
170
     5
 62
     0
 63
     7
283
     0
274
    -2
284
     1
 64
     0
275
    -2
285
     1
 65
     0
276
    -2
286
     1
 66
     0
277
    -2
287
     1
 67
     0
278
    -2
288
     1
 68
     0
279
    -2
289
     1
 69
     0
  7
Standard
140
0.18
170
     5
 62
     0
 63
     7
283
     0
274
    -2
284
     1
 64
     0
275
    -2
285
     1
 65
     0
276
    -2
286
     1
 66
     0
277
    -2
287
     1
 67
     0
278
    -2
288
     1
 68
     0
279
    -2
289
     1
 69
     0
  0
VISUALSTYLE
  5
2F
102
{ACAD_XDICTIONARY
360
1A1
102
}
102
{ACAD_REACTORS
330
29
102
}
330
29
100
AcDbVisualStyle
  2
2dWireframe
 70
     4
 71
     0
 72
     2
 73
     0
 90
        0
 40
-0.6
 41
-30.0
 62
     5
 63
     7
 74
     1
 91
        4
 64
     7
 65
   257
 75
     1
175
     1
 42
1.0
 92
        0
 66
   257
 43
1.0
 76
     1
 77
     6
 78
     2
 67
     7
 79
     5
170
     0
171
     0
290
     0
174
     0
 93
        1
 44
0.0
173
     0
291
     0
 45
0.0
1001
ACAD
1000
AcDbSavedByObjectVersion
1070
     0
  0
VISUALSTYLE
  5
2E
102
{ACAD_XDICTIONARY
360
19F
102
}
102
{ACAD_REACTORS
330
29
102
}
330
29
100
AcDbVisualStyle
  2
Basic
 70
     7
 71
     1
 72
     0
 73
     1
 90
        0
 40
-0.6
 41
-30.0
 62
     5
 63
     7
 74
     0
 91
        4
 64
     7
 65
   257
 75
     1
175
     1
 42
1.0
 92
        8
 66
     7
 43
1.0
 76
     1
 77
     6
 78
     2
 67
     7
 79
     5
170
     0
171
     0
290
     0
174
     0
 93
        1
 44
0.0
173
     0
291
     1
 45
0.0
1001
ACAD
1000
AcDbSavedByObjectVersion
1070
     0
  0
VISUALSTYLE
  5
35
102
{ACAD_XDICTIONARY
360
1AD
102
}
102
{ACAD_REACTORS
330
29
102
}
330
29
100
AcDbVisualStyle
  2
Brighten
 70
    12
 71
     2
 72
     2
 73
     0
 90
        0
 40
-0.6
 41
-30.0
 62
     5
 63
     7
 74
     1
 91
        4
 64
     7
 65
   257
 75
     1
175
     1
 42
1.0
 92
        8
 66
     7
 43
1.0
 76
     1
 77
     6
 78
     2
 67
     7
 79
     5
170
     0
171
     0
290
     0
174
     0
 93
        1
 44
50.0
173
     0
291
     1
 45
0.0
1001
ACAD
1000
AcDbSavedByObjectVersion
1070
     0
  0
VISUALSTYLE
  5
39
102
{ACAD_XDICTIONARY
360
1B5
102
}
102
{ACAD_REACTORS
330
29
102
}
330
29
100
AcDbVisualStyle
  2
ColorChange
 70
    16
 71
     2
 72
     2
 73
     3
 90
        0
 40
-0.6
 41
-30.0
 62
     5
 63
     8
 74
     1
 91
        4
 64
     7
 65
   257
 75
     1
175
     1
 42
1.0
 92
        8
 66
     8
 43
1.0
 76
     1
 77
     6
 78
     2
 67
     7
 79
     5
170
     0
171
     0
290
     0
174
     0
 93
        1
 44
0.0
173
     0
291
     1
 45
0.0
1001
ACAD
1000
AcDbSavedByObjectVersion
1070
     0
  0
VISUALSTYLE
  5
32
102
{ACAD_XDICTIONARY
360
1A7
102
}
102
{ACAD_REACTORS
330
29
102
}
330
29
100
AcDbVisualStyle
  2
Conceptual
 70
     9
 71
     3
 72
     2
 73
     0
 90
        0
 40
-0.6
 41
-30.0
 62
     5
 63
     7
 74
     2
 91
        2
 64
     7
 65
   257
 75
     1
175
     1
 42
179.0
 92
        8
 66
     7
 43
1.0
 76
     1
 77
     6
 78
     2
 67
     7
 79
     3
170
     0
171
     0
290
     0
174
     0
 93
        1
 44
0.0
173
     0
291
     0
 45
0.0
1001
ACAD
1000
AcDbSavedByObjectVersion
1070
     0
  0
VISUALSTYLE
  5
34
102
{ACAD_XDICTIONARY
360
1AB
102
}
102
{ACAD_REACTORS
330
29
102
}
330
29
100
AcDbVisualStyle
  2
Dim
 70
    11
 71
     2
 72
     2
 73
     0
 90
        0
 40
-0.6
 41
-30.0
 62
     5
 63
     7
 74
     1
 91
        4
 64
     7
 65
   257
 75
     1
175
     1
 42
1.0
 92
        8
 66
     7
 43
1.0
 76
     1
 77
     6
 78
     2
 67
     7
 79
     5
170
     0
171
     0
290
     0
174
     0
 93
        1
 44
-50.0
173
     0
291
     1
 45
0.0
1001
ACAD
1000
AcDbSavedByObjectVersion
1070
     0
  0
VISUALSTYLE
  5
41
102
{ACAD_XDICTIONARY
360
1C5
102
}
102
{ACAD_REACTORS
330
29
102
}
330
29
100
AcDbVisualStyle
  2
EdgeColorOff
 70
    22
 71
     2
 72
     2
 73
     0
 90
        0
 40
-0.6
 41
-30.0
 62
     5
 63
     7
 74
     1
 91
        4
 64
     7
 65
   257
 75
     1
175
     1
 42
1.0
 92
        8
 66
     7
 43
1.0
 76
     1
 77
     6
 78
     2
 67
     7
 79
     5
170
     0
171
     0
290
     0
174
     0
 93
        1
 44
0.0
173
     0
291
     1
 45
0.0
1001
ACAD
1000
AcDbSavedByObjectVersion
1070
     0
  0
VISUALSTYLE
  5
38
102
{ACAD_XDICTIONARY
360
1B3
102
}
102
{ACAD_REACTORS
330
29
102
}
330
29
100
AcDbVisualStyle
  2
Facepattern
 70
    15
 71
     2
 72
     2
 73
     0
 90
        0
 40
-0.6
 41
-30.0
 62
     5
 63
     7
 74
     1
 91
        4
 64
     7
 65
   257
 75
     1
175
     1
 42
1.0
 92
        8
 66
     7
 43
1.0
 76
     1
 77
     6
 78
     2
 67
     7
 79
     5
170
     0
171
     0
290
     0
174
     0
 93
        1
 44
0.0
173
     0
291
     1
 45
0.0
1001
ACAD
1000
AcDbSavedByObjectVersion
1070
     0
  0
VISUALSTYLE
  5
2A
102
{ACAD_XDICTIONARY
360
197
102
}
102
{ACAD_REACTORS
330
29
102
}
330
29
100
AcDbVisualStyle
  2
Flat
 70
     0
 71
     2
 72
     1
 73
     1
 90
        2
 40
-0.6
 41
30.0
 62
     5
 63
     7
 74
     0
 91
        0
 64
     7
 65
   257
 75
     1
175
     1
 42
1.0
 92
        8
 66
     7
 43
1.0
 76
     1
 77
     6
 78
     2
 67
     7
 79
     5
170
     0
171
     0
290
     0
174
     0
 93
       13
 44
0.0
173
     0
291
     1
 45
0.0
1001
ACAD
1000
AcDbSavedByObjectVersion
1070
     0
  0
VISUALSTYLE
  5
2B
102
{ACAD_XDICTIONARY
360
199
102
}
102
{ACAD_REACTORS
330
29
102
}
330
29
100
AcDbVisualStyle
  2
FlatWithEdges
 70
     1
 71
     2
 72
     1
 73
     1
 90
        2
 40
-0.6
 41
30.0
 62
     5
 63
     7
 74
     1
 91
        0
 64
     7
 65
   257
 75
     1
175
     1
 42
1.0
 92
        0
 66
   257
 43
1.0
 76
     1
 77
     6
 78
     2
 67
     7
 79
     5
170
     0
171
     0
290
     0
174
     0
 93
       13
 44
0.0
173
     0
291
     1
 45
0.0
1001
ACAD
1000
AcDbSavedByObjectVersion
1070
     0
  0
VISUALSTYLE
  5
2C
102
{ACAD_XDICTIONARY
360
19B
102
}
102
{ACAD_REACTORS
330
29
102
}
330
29
100
AcDbVisualStyle
  2
Gouraud
 70
     2
 71
     2
 72
     2
 73
     1
 90
        2
 40
-0.6
 41
30.0
 62
     5
 63
     7
 74
     0
 91
        0
 64
     7
 65
   257
 75
     1
175
     1
 42
1.0
 92
        0
 66
     7
 43
1.0
 76
     1
 77
     6
 78
     2
 67
     7
 79
     5
170
     0
171
     0
290
     0
174
     0
 93
       13
 44
0.0
173
     0
291
     1
 45
0.0
1001
ACAD
1000
AcDbSavedByObjectVersion
1070
     0
  0
VISUALSTYLE
  5
2D
102
{ACAD_XDICTIONARY
360
19D
102
}
102
{ACAD_REACTORS
330
29
102
}
330
29
100
AcDbVisualStyle
  2
GouraudWithEdges
 70
     3
 71
     2
 72
     2
 73
     1
 90
        2
 40
-0.6
 41
30.0
 62
     5
 63
     7
 74
     1
 91
        0
 64
     7
 65
   257
 75
     1
175
     1
 42
1.0
 92
        0
 66
   257
 43
1.0
 76
     1
 77
     6
 78
     2
 67
     7
 79
     5
170
     0
171
     0
290
     0
174
     0
 93
       13
 44
0.0
173
     0
291
     1
 45
0.0
1001
ACAD
1000
AcDbSavedByObjectVersion
1070
     0
  0
VISUALSTYLE
  5
31
102
{ACAD_XDICTIONARY
360
1A5
102
}
102
{ACAD_REACTORS
330
29
102
}
330
29
100
AcDbVisualStyle
  2
Hidden
 70
     6
 71
     1
 72
     2
 73
     2
 90
        0
 40
-0.6
 41
-30.0
 62
     5
 63
     7
 74
     2
 91
        2
 64
     7
 65
   257
 75
     2
175
     1
 42
40.0
 92
        0
 66
   257
 43
1.0
 76
     1
 77
     6
 78
     2
 67
     7
 79
     3
170
     0
171
     0
290
     0
174
     0
 93
        1
 44
0.0
173
     0
291
     0
 45
0.0
1001
ACAD
1000
AcDbSavedByObjectVersion
1070
     0
  0
VISUALSTYLE
  5
3F
102
{ACAD_XDICTIONARY
360
1C1
102
}
102
{ACAD_REACTORS
330
29
102
}
330
29
100
AcDbVisualStyle
  2
JitterOff
 70
    20
 71
     2
 72
     2
 73
     0
 90
        0
 40
-0.6
 41
-30.0
 62
     5
 63
     7
 74
     1
 91
        4
 64
     7
 65
   257
 75
     1
175
     1
 42
1.0
 92
       10
 66
     7
 43
1.0
 76
     1
 77
     6
 78
     2
 67
     7
 79
     5
170
     0
171
     0
290
     0
174
     0
 93
        1
 44
0.0
173
     0
291
     1
 45
0.0
1001
ACAD
1000
AcDbSavedByObjectVersion
1070
     0
  0
VISUALSTYLE
  5
37
102
{ACAD_XDICTIONARY
360
1B1
102
}
102
{ACAD_REACTORS
330
29
102
}
330
29
100
AcDbVisualStyle
  2
Linepattern
 70
    14
 71
     2
 72
     2
 73
     0
 90
        0
 40
-0.6
 41
-30.0
 62
     5
 63
     7
 74
     1
 91
        4
 64
     7
 65
   257
 75
     7
175
     7
 42
1.0
 92
        8
 66
     7
 43
1.0
 76
     1
 77
     6
 78
     2
 67
     7
 79
     5
170
     0
171
     0
290
     0
174
     0
 93
        1
 44
0.0
173
     0
291
     1
 45
0.0
1001
ACAD
1000
AcDbSavedByObjectVersion
1070
     0
  0
VISUALSTYLE
  5
40
102
{ACAD_XDICTIONARY
360
1C3
102
}
102
{ACAD_REACTORS
330
29
102
}
330
29
100
AcDbVisualStyle
  2
OverhangOff
 70
    21
 71
     2
 72
     2
 73
     0
 90
        0
 40
-0.6
 41
-30.0
 62
     5
 63
     7
 74
     1
 91
        4
 64
     7
 65
   257
 75
     1
175
     1
 42
1.0
 92
        9
 66
     7
 43
1.0
 76
     1
 77
     6
 78
     2
 67
     7
 79
     5
170
     0
171
     0
290
     0
174
     0
 93
        1
 44
0.0
173
     0
291
     1
 45
0.0
1001
ACAD
1000
AcDbSavedByObjectVersion
1070
     0
  0
VISUALSTYLE
  5
33
102
{ACAD_XDICTIONARY
360
1A9
102
}
102
{ACAD_REACTORS
330
29
102
}
330
29
100
AcDbVisualStyle
  2
Realistic
 70
     8
 71
     2
 72
     3
 73
     0
 90
        2
 40
-0.6
 41
30.0
 62
     5
 63
     7
 74
     0
 91
        0
 64
     7
 65
   257
 75
     1
175
     1
 42
1.0
 92
        8
 66
   257
 43
1.0
 76
     1
 77
     6
 78
     2
 67
     7
 79
     3
170
     0
171
     0
290
     0
174
     0
 93
       13
 44
0.0
173
     0
291
     0
 45
0.0
1001
ACAD
1000
AcDbSavedByObjectVersion
1070
     0
  0
VISUALSTYLE
  5
3E
102
{ACAD_XDICTIONARY
360
1BF
102
}
102
{ACAD_REACTORS
330
29
102
}
330
29
100
AcDbVisualStyle
  2
Shaded
 70
    27
 71
     2
 72
     2
 73
     1
 90
        2
 40
-0.6
 41
30.0
 62
     5
 63
     7
 74
     0
 91
        4
 64
     7
 65
   257
 75
     1
175
     1
 42
1.0
 92
        8
 66
   257
 43
1.0
 76
     1
 77
     6
 78
     2
 67
     8
 79
     3
170
     0
171
     0
290
     0
174
     0
 93
        5
 44
0.0
173
     0
291
     0
 45
0.0
1001
ACAD
1000
AcDbSavedByObjectVersion
1070
     0
  0
VISUALSTYLE
  5
3D
102
{ACAD_XDICTIONARY
360
1BD
102
}
102
{ACAD_REACTORS
330
29
102
}
330
29
100
AcDbVisualStyle
  2
Shaded with edges
 70
    26
 71
     2
 72
     2
 73
     1
 90
        2
 40
-0.6
 41
30.0
 62
     5
 63
     7
 74
     1
 91
        2
 64
     7
 65
   257
 75
     2
175
     1
 42
1.0
 92
        8
 66
   257
 43
1.0
 76
     1
 77
     6
 78
     2
 67
     7
 79
     3
170
     0
171
     0
290
     0
174
     0
 93
        5
 44
0.0
173
     0
291
     0
 45
0.0
1001
ACAD
1000
AcDbSavedByObjectVersion
1070
     0
  0
VISUALSTYLE
  5
3A
102
{ACAD_XDICTIONARY
360
1B7
102
}
102
{ACAD_REACTORS
330
29
102
}
330
29
100
AcDbVisualStyle
  2
Shades of Gray
 70
    23
 71
     2
 72
     2
 73
     3
 90
        0
 40
-0.6
 41
-30.0
 62
     5
 63
     7
 74
     2
 91
        2
 64
     7
 65
     7
 75
     1
175
     1
 42
40.0
 92
        8
 66
     7
 43
1.0
 76
     1
 77
     6
 78
     2
 67
     7
 79
     3
170
     0
171
     0
290
     0
174
     0
 93
        1
 44
0.0
173
     0
291
     0
 45
0.0
1001
ACAD
1000
AcDbSavedByObjectVersion
1070
     0
  0
VISUALSTYLE
  5
3B
102
{ACAD_XDICTIONARY
360
1B9
102
}
102
{ACAD_REACTORS
330
29
102
}
330
29
100
AcDbVisualStyle
  2
Sketchy
 70
    24
 71
     1
 72
     2
 73
     2
 90
        0
 40
-0.6
 41
-30.0
 62
     5
 63
     7
 74
     2
 91
        2
 64
     7
 65
     7
 75
     1
175
     1
 42
40.0
 92
       11
 66
     7
 43
1.0
 76
     1
 77
     6
 78
     2
 67
     7
 79
     6
170
     0
171
     0
290
     0
174
     0
 93
        1
 44
0.0
173
     0
291
     0
 45
0.0
1001
ACAD
1000
AcDbSavedByObjectVersion
1070
     0
  0
VISUALSTYLE
  5
36
102
{ACAD_XDICTIONARY
360
1AF
102
}
102
{ACAD_REACTORS
330
29
102
}
330
29
100
AcDbVisualStyle
  2
Thicken
 70
    13
 71
     2
 72
     2
 73
     0
 90
        0
 40
-0.6
 41
-30.0
 62
     5
 63
     7
 74
     1
 91
        4
 64
     7
 65
   257
 75
     1
175
     1
 42
1.0
 92
       12
 66
     7
 43
1.0
 76
     1
 77
     6
 78
     2
 67
     7
 79
     5
170
     0
171
     0
290
     0
174
     0
 93
        1
 44
0.0
173
     0
291
     1
 45
0.0
1001
ACAD
1000
AcDbSavedByObjectVersion
1070
     0
  0
VISUALSTYLE
  5
30
102
{ACAD_XDICTIONARY
360
1A3
102
}
102
{ACAD_REACTORS
330
29
102
}
330
29
100
AcDbVisualStyle
  2
Wireframe
 70
     5
 71
     0
 72
     2
 73
     0
 90
        0
 40
-0.6
 41
-30.0
 62
     5
 63
     7
 74
     1
 91
        4
 64
     7
 65
   257
 75
     1
175
     1
 42
1.0
 92
        0
 66
   257
 43
1.0
 76
     1
 77
     6
 78
     2
 67
     7
 79
     3
170
     0
171
     0
290
     0
174
     0
 93
        1
 44
0.0
173
     0
291
     0
 45
0.0
1001
ACAD
1000
AcDbSavedByObjectVersion
1070
     0
  0
VISUALSTYLE
  5
3C
102
{ACAD_XDICTIONARY
360
1BB
102
}
102
{ACAD_REACTORS
330
29
102
}
330
29
100
AcDbVisualStyle
  2
X-Ray
 70
    25
 71
     2
 72
     2
 73
     1
 90
        1
 40
0.5
 41
-30.0
 62
     5
 63
     7
 74
     1
 91
        0
 64
     7
 65
   257
 75
     1
175
     1
 42
1.0
 92
        8
 66
     7
 43
1.0
 76
     1
 77
     6
 78
     2
 67
     7
 79
     3
170
     0
171
     0
290
     0
174
     0
 93
       13
 44
0.0
173
     0
291
     0
 45
0.0
1001
ACAD
1000
AcDbSavedByObjectVersion
1070
     0
  0
DICTIONARYVAR
  5
188
102
{ACAD_REACTORS
330
182
102
}
330
182
100
DictionaryVariables
280
     0
  1
1:1
  0
DICTIONARYVAR
  5
184
102
{ACAD_REACTORS
330
182
102
}
330
182
100
DictionaryVariables
280
     0
  1
STANDARD
  0
DICTIONARYVAR
  5
183
102
{ACAD_REACTORS
330
182
102
}
330
182
100
DictionaryVariables
280
     0
  1
STANDARD
  0
DICTIONARYVAR
  5
185
102
{ACAD_REACTORS
330
182
102
}
330
182
100
DictionaryVariables
280
     0
  1
Imperial24
  0
DICTIONARYVAR
  5
186
102
{ACAD_REACTORS
330
182
102
}
330
182
100
DictionaryVariables
280
     0
  1
Imperial24
  0
DICTIONARYVAR
  5
18F
102
{ACAD_REACTORS
330
182
102
}
330
182
100
DictionaryVariables
280
     0
  1
2
  0
DICTIONARYVAR
  5
18E
102
{ACAD_REACTORS
330
182
102
}
330
182
100
DictionaryVariables
280
     0
  1
1
  0
DICTIONARYVAR
  5
18D
102
{ACAD_REACTORS
330
182
102
}
330
182
100
DictionaryVariables
280
     0
  1
0
  0
DICTIONARYVAR
  5
18A
102
{ACAD_REACTORS
330
182
102
}
330
182
100
DictionaryVariables
280
     0
  1
0
  0
DICTIONARYVAR
  5
18B
102
{ACAD_REACTORS
330
182
102
}
330
182
100
DictionaryVariables
280
     0
  1
0
  0
DICTIONARYVAR
  5
189
102
{ACAD_REACTORS
330
182
102
}
330
182
100
DictionaryVariables
280
     0
  1
2
  0
DICTIONARYVAR
  5
187
102
{ACAD_REACTORS
330
182
102
}
330
182
100
DictionaryVariables
280
     0
  1
1
  0
DICTIONARYVAR
  5
18C
102
{ACAD_REACTORS
330
182
102
}
330
182
100
DictionaryVariables
280
     0
  1
127
  0
DICTIONARYVAR
  5
190
102
{ACAD_REACTORS
330
182
102
}
330
182
100
DictionaryVariables
280
     0
  1
2
  0
DICTIONARY
  5
1CD
330
6B
100
AcDbDictionary
280
     1
281
     1
  3
ACAD_XREC_ROUNDTRIP
360
1CE
  0
DICTIONARY
  5
1CF
330
6F
100
AcDbDictionary
280
     1
281
     1
  3
ACAD_XREC_ROUNDTRIP
360
1D0
  0
DICTIONARY
  5
1D3
330
77
100
AcDbDictionary
280
     1
281
     1
  3
ACAD_XREC_ROUNDTRIP
360
1D4
  0
DICTIONARY
  5
1D1
330
73
100
AcDbDictionary
280
     1
281
     1
  3
ACAD_XREC_ROUNDTRIP
360
1D2
  0
DICTIONARY
  5
1A
330
19
100
AcDbDictionary
280
     1
281
     1
  3
ACAD_XREC_ROUNDTRIP
360
195
  3
BUMPTILE
360
1C
  3
DIFFUSETILE
360
1B
  3
OPACITYTILE
360
1F
  3
REFLECTIONTILE
360
1E
  3
REFRACTIONTILE
360
20
  3
SPECULARTILE
360
1D
  0
DICTIONARY
  5
12
330
11
100
AcDbDictionary
280
     1
281
     1
  3
ACAD_XREC_ROUNDTRIP
360
194
  3
BUMPTILE
360
14
  3
DIFFUSETILE
360
13
  3
OPACITYTILE
360
17
  3
REFLECTIONTILE
360
16
  3
REFRACTIONTILE
360
18
  3
SPECULARTILE
360
15
  0
DICTIONARY
  5
22
330
21
100
AcDbDictionary
280
     1
281
     1
  3
ACAD_XREC_ROUNDTRIP
360
196
  3
BUMPTILE
360
24
  3
DIFFUSETILE
360
23
  3
OPACITYTILE
360
27
  3
REFLECTIONTILE
360
26
  3
REFRACTIONTILE
360
28
  3
SPECULARTILE
360
25
  0
DICTIONARY
  5
1C9
330
67
100
AcDbDictionary
280
     1
281
     1
  3
ACAD_XREC_ROUNDTRIP
360
1CA
  0
DICTIONARY
  5
1CB
330
69
100
AcDbDictionary
280
     1
281
     1
  3
ACAD_XREC_ROUNDTRIP
360
1CC
  0
DICTIONARY
  5
191
330
65
100
AcDbDictionary
280
     1
281
     1
  3
ACAD_ROUNDTRIP_2008_TABLESTYLE_CELLSTYLEMAP
360
192
  3
ACAD_XREC_ROUNDTRIP
360
1C7
  0
DICTIONARY
  5
1A1
330
2F
100
AcDbDictionary
280
     1
281
     1
  3
ACAD_XREC_ROUNDTRIP
360
1A2
  0
DICTIONARY
  5
19F
330
2E
100
AcDbDictionary
280
     1
281
     1
  3
ACAD_XREC_ROUNDTRIP
360
1A0
  0
DICTIONARY
  5
1AD
330
35
100
AcDbDictionary
280
     1
281
     1
  3
ACAD_XREC_ROUNDTRIP
360
1AE
  0
DICTIONARY
  5
1B5
330
39
100
AcDbDictionary
280
     1
281
     1
  3
ACAD_XREC_ROUNDTRIP
360
1B6
  0
DICTIONARY
  5
1A7
330
32
100
AcDbDictionary
280
     1
281
     1
  3
ACAD_XREC_ROUNDTRIP
360
1A8
  0
DICTIONARY
  5
1AB
330
34
100
AcDbDictionary
280
     1
281
     1
  3
ACAD_XREC_ROUNDTRIP
360
1AC
  0
DICTIONARY
  5
1C5
330
41
100
AcDbDictionary
280
     1
281
     1
  3
ACAD_XREC_ROUNDTRIP
360
1C6
  0
DICTIONARY
  5
1B3
330
38
100
AcDbDictionary
280
     1
281
     1
  3
ACAD_XREC_ROUNDTRIP
360
1B4
  0
DICTIONARY
  5
197
330
2A
100
AcDbDictionary
280
     1
281
     1
  3
ACAD_XREC_ROUNDTRIP
360
198
  0
DICTIONARY
  5
199
330
2B
100
AcDbDictionary
280
     1
281
     1
  3
ACAD_XREC_ROUNDTRIP
360
19A
  0
DICTIONARY
  5
19B
330
2C
100
AcDbDictionary
280
     1
281
     1
  3
ACAD_XREC_ROUNDTRIP
360
19C
  0
DICTIONARY
  5
19D
330
2D
100
AcDbDictionary
280
     1
281
     1
  3
ACAD_XREC_ROUNDTRIP
360
19E
  0
DICTIONARY
  5
1A5
330
31
100
AcDbDictionary
280
     1
281
     1
  3
ACAD_XREC_ROUNDTRIP
360
1A6
  0
DICTIONARY
  5
1C1
330
3F
100
AcDbDictionary
280
     1
281
     1
  3
ACAD_XREC_ROUNDTRIP
360
1C2
  0
DICTIONARY
  5
1B1
330
37
100
AcDbDictionary
280
     1
281
     1
  3
ACAD_XREC_ROUNDTRIP
360
1B2
  0
DICTIONARY
  5
1C3
330
40
100
AcDbDictionary
280
     1
281
     1
  3
ACAD_XREC_ROUNDTRIP
360
1C4
  0
DICTIONARY
  5
1A9
330
33
100
AcDbDictionary
280
     1
281
     1
  3
ACAD_XREC_ROUNDTRIP
360
1AA
  0
DICTIONARY
  5
1BF
330
3E
100
AcDbDictionary
280
     1
281
     1
  3
ACAD_XREC_ROUNDTRIP
360
1C0
  0
DICTIONARY
  5
1BD
330
3D
100
AcDbDictionary
280
     1
281
     1
  3
ACAD_XREC_ROUNDTRIP
360
1BE
  0
DICTIONARY
  5
1B7
330
3A
100
AcDbDictionary
280
     1
281
     1
  3
ACAD_XREC_ROUNDTRIP
360
1B8
  0
DICTIONARY
  5
1B9
330
3B
100
AcDbDictionary
280
     1
281
     1
  3
ACAD_XREC_ROUNDTRIP
360
1BA
  0
DICTIONARY
  5
1AF
330
36
100
AcDbDictionary
280
     1
281
     1
  3
ACAD_XREC_ROUNDTRIP
360
1B0
  0
DICTIONARY
  5
1A3
330
30
100
AcDbDictionary
280
     1
281
     1
  3
ACAD_XREC_ROUNDTRIP
360
1A4
  0
DICTIONARY
  5
1BB
330
3C
100
AcDbDictionary
280
     1
281
     1
  3
ACAD_XREC_ROUNDTRIP
360
1BC
  0
XRECORD
  5
1CE
102
{ACAD_REACTORS
330
1CD
102
}
330
1CD
100
AcDbXrecord
280
     1
102
DISPLAYNAME
  1
Imperial24
102
FLAGS
 90
        0
  0
XRECORD
  5
1D0
102
{ACAD_REACTORS
330
1CF
102
}
330
1CF
100
AcDbXrecord
280
     1
102
SHADEPLOT
 70
     0
102
SHADEPLOTRESLEVEL
 70
     2
102
SHADEPLOTCUSTOMDPI
 70
   300
  0
XRECORD
  5
1D4
102
{ACAD_REACTORS
330
1D3
102
}
330
1D3
100
AcDbXrecord
280
     1
102
SHADEPLOT
 70
     0
102
SHADEPLOTRESLEVEL
 70
     2
102
SHADEPLOTCUSTOMDPI
 70
   300
  0
XRECORD
  5
1D2
102
{ACAD_REACTORS
330
1D1
102
}
330
1D1
100
AcDbXrecord
280
     1
102
SHADEPLOT
 70
     0
102
SHADEPLOTRESLEVEL
 70
     2
102
SHADEPLOTCUSTOMDPI
 70
   300
  0
XRECORD
  5
195
102
{ACAD_REACTORS
330
1A
102
}
330
1A
100
AcDbXrecord
280
     1
102
MATERIAL
148
0.0
149
0.0
149
0.0
 93
        0
 94
      127
282
     0
 72
     0
 77
     0
171
     0
175
     0
179
     0
273
     0
  0
XRECORD
  5
1C
102
{ACAD_REACTORS
330
1A
102
}
330
1A
100
AcDbXrecord
280
     1
270
     1
271
     1
  0
XRECORD
  5
1B
102
{ACAD_REACTORS
330
1A
102
}
330
1A
100
AcDbXrecord
280
     1
270
     1
271
     1
  0
XRECORD
  5
1F
102
{ACAD_REACTORS
330
1A
102
}
330
1A
100
AcDbXrecord
280
     1
270
     1
271
     1
  0
XRECORD
  5
1E
102
{ACAD_REACTORS
330
1A
102
}
330
1A
100
AcDbXrecord
280
     1
270
     1
271
     1
  0
XRECORD
  5
20
102
{ACAD_REACTORS
330
1A
102
}
330
1A
100
AcDbXrecord
280
     1
270
     1
271
     1
  0
XRECORD
  5
1D
102
{ACAD_REACTORS
330
1A
102
}
330
1A
100
AcDbXrecord
280
     1
270
     1
271
     1
  0
XRECORD
  5
194
102
{ACAD_REACTORS
330
12
102
}
330
12
100
AcDbXrecord
280
     1
102
MATERIAL
148
0.0
149
0.0
149
0.0
 93
        0
 94
      127
282
     0
 72
     0
 77
     0
171
     0
175
     0
179
     0
273
     0
  0
XRECORD
  5
14
102
{ACAD_REACTORS
330
12
102
}
330
12
100
AcDbXrecord
280
     1
270
     1
271
     1
  0
XRECORD
  5
13
102
{ACAD_REACTORS
330
12
102
}
330
12
100
AcDbXrecord
280
     1
270
     1
271
     1
  0
XRECORD
  5
17
102
{ACAD_REACTORS
330
12
102
}
330
12
100
AcDbXrecord
280
     1
270
     1
271
     1
  0
XRECORD
  5
16
102
{ACAD_REACTORS
330
12
102
}
330
12
100
AcDbXrecord
280
     1
270
     1
271
     1
  0
XRECORD
  5
18
102
{ACAD_REACTORS
330
12
102
}
330
12
100
AcDbXrecord
280
     1
270
     1
271
     1
  0
XRECORD
  5
15
102
{ACAD_REACTORS
330
12
102
}
330
12
100
AcDbXrecord
280
     1
270
     1
271
     1
  0
XRECORD
  5
196
102
{ACAD_REACTORS
330
22
102
}
330
22
100
AcDbXrecord
280
     1
102
MATERIAL
148
0.0
149
0.0
149
0.0
 93
        0
 94
      127
282
     0
 72
     0
 77
     0
171
     0
175
     0
179
     0
273
     0
  0
XRECORD
  5
24
102
{ACAD_REACTORS
330
22
102
}
330
22
100
AcDbXrecord
280
     1
270
     1
271
     1
  0
XRECORD
  5
23
102
{ACAD_REACTORS
330
22
102
}
330
22
100
AcDbXrecord
280
     1
270
     1
271
     1
  0
XRECORD
  5
27
102
{ACAD_REACTORS
330
22
102
}
330
22
100
AcDbXrecord
280
     1
270
     1
271
     1
  0
XRECORD
  5
26
102
{ACAD_REACTORS
330
22
102
}
330
22
100
AcDbXrecord
280
     1
270
     1
271
     1
  0
XRECORD
  5
28
102
{ACAD_REACTORS
330
22
102
}
330
22
100
AcDbXrecord
280
     1
270
     1
271
     1
  0
XRECORD
  5
25
102
{ACAD_REACTORS
330
22
102
}
330
22
100
AcDbXrecord
280
     1
270
     1
271
     1
  0
XRECORD
  5
1CA
102
{ACAD_REACTORS
330
1C9
102
}
330
1C9
100
AcDbXrecord
280
     1
102
ACAD_ROUNDTRIP_2012_MLEADER_STYLE
298
     1
  0
XRECORD
  5
1CC
102
{ACAD_REACTORS
330
1CB
102
}
330
1CB
100
AcDbXrecord
280
     1
102
DISPLAYNAME
  1
Imperial24
102
FLAGS
 90
        0
  0
CELLSTYLEMAP
  5
192
102
{ACAD_REACTORS
330
191
102
}
330
191
100
AcDbCellStyleMap
 90
        3
300
CELLSTYLE
  1
TABLEFORMAT_BEGIN
 90
        5
170
     1
 91
        0
 92
    32768
 62
   257
 93
        1
300
CONTENTFORMAT
  1
CONTENTFORMAT_BEGIN
 90
        0
 91
        0
 92
      512
 93
        0
300

 40
0.0
140
1.0
 94
        5
 62
     0
340
55
144
0.25
309
CONTENTFORMAT_END
171
     0
 94
        0
309
TABLEFORMAT_END
  1
CELLSTYLE_BEGIN
 90
        1
 91
        1
300
_TITLE
309
CELLSTYLE_END
300
CELLSTYLE
  1
TABLEFORMAT_BEGIN
 90
        5
170
     1
 91
        0
 92
        0
 62
   257
 93
        1
300
CONTENTFORMAT
  1
CONTENTFORMAT_BEGIN
 90
        0
 91
        0
 92
      512
 93
        0
300

 40
0.0
140
1.0
 94
        5
 62
     0
340
55
144
0.18
309
CONTENTFORMAT_END
171
     0
 94
        0
309
TABLEFORMAT_END
  1
CELLSTYLE_BEGIN
 90
        2
 91
        1
300
_HEADER
309
CELLSTYLE_END
300
CELLSTYLE
  1
TABLEFORMAT_BEGIN
 90
        5
170
     1
 91
        0
 92
        0
 62
   257
 93
        1
300
CONTENTFORMAT
  1
CONTENTFORMAT_BEGIN
 90
        0
 91
        0
 92
      512
 93
        0
300

 40
0.0
140
1.0
 94
        2
 62
     0
340
55
144
0.18
309
CONTENTFORMAT_END
171
     0
 94
        0
309
TABLEFORMAT_END
  1
CELLSTYLE_BEGIN
 90
        3
 91
        2
300
_DATA
309
CELLSTYLE_END
  0
XRECORD
  5
1C7
102
{ACAD_REACTORS
330
191
102
}
330
191
100
AcDbXrecord
280
     1
102
ACAD_ROUNDTRIP_PRE2007_TABLESTYLE
 90
      512
 91
        0
  1

 92
      512
 93
        0
  2

 94
      512
 95
        0
  3

  0
XRECORD
  5
1A2
102
{ACAD_REACTORS
330
1A1
102
}
330
1A1
100
AcDbXrecord
280
     1
102
RTVSPost2010Prop28
280
     1
102
RTVSPost2010PropOp28
 70
     1
102
RTVSPost2010Prop29
280
     1
102
RTVSPost2010PropOp29
 70
     1
102
RTVSPost2010Prop30
280
     0
102
RTVSPost2010PropOp30
 70
     1
102
RTVSPost2010Prop31
280
     0
102
RTVSPost2010PropOp31
 70
     1
102
RTVSPost2010Prop32
280
     0
102
RTVSPost2010PropOp32
 70
     1
102
RTVSPost2010Prop33
280
     0
102
RTVSPost2010PropOp33
 70
     1
102
RTVSPost2010Prop34
280
     0
102
RTVSPost2010PropOp34
 70
     1
102
RTVSPost2010Prop35
280
     0
102
RTVSPost2010PropOp35
 70
     1
102
RTVSPost2010Prop36
280
     0
102
RTVSPost2010PropOp36
 70
     1
102
RTVSPost2010Prop37
 90
       50
102
RTVSPost2010PropOp37
 70
     1
102
RTVSPost2010Prop38
140
0.0
102
RTVSPost2010PropOp38
 70
     1
102
RTVSPost2010Prop39
140
1.0
102
RTVSPost2010PropOp39
 70
     1
102
RTVSPost2010Prop40
 90
        0
102
RTVSPost2010PropOp40
 70
     1
102
RTVSPost2010Prop41ColorIndex
 90
       18
102
RTVSPost2010Prop41ColorRGB
 90
        0
102
RTVSPost2010PropOp41
 70
     1
102
RTVSPost2010Prop42
 90
       50
102
RTVSPost2010PropOp42
 70
     1
102
RTVSPost2010Prop43
 90
        3
102
RTVSPost2010PropOp43
 70
     1
102
RTVSPost2010Prop44ColorIndex
 90
        5
102
RTVSPost2010Prop44ColorRGB
 90
      255
102
RTVSPost2010PropOp44
 70
     1
102
RTVSPost2010Prop45
280
     0
102
RTVSPost2010PropOp45
 70
     1
102
RTVSPost2010Prop46
 90
       50
102
RTVSPost2010PropOp46
 70
     1
102
RTVSPost2010Prop47
 90
       50
102
RTVSPost2010PropOp47
 70
     1
102
RTVSPost2010Prop48
 90
       50
102
RTVSPost2010PropOp48
 70
     1
102
RTVSPost2010Prop49
280
     0
102
RTVSPost2010PropOp49
 70
     1
102
RTVSPost2010Prop50
 90
       50
102
RTVSPost2010PropOp50
 70
     1
102
RTVSPost2010Prop51ColorIndex
 90
      256
102
RTVSPost2010Prop51ColorRGB
 90
-16777216
102
RTVSPost2010PropOp51
 70
     0
102
RTVSPost2010Prop52
140
1.0
102
RTVSPost2010PropOp52
 70
     0
102
RTVSPost2010Prop53
 90
        2
102
RTVSPost2010PropOp53
 70
     1
102
RTVSPost2010Prop54
  1
strokes_ogs.tif
102
RTVSPost2010PropOp54
 70
     1
102
RTVSPost2010Prop55
280
     0
102
RTVSPost2010PropOp55
 70
     1
102
RTVSPost2010Prop56
140
1.0
102
RTVSPost2010PropOp56
 70
     1
102
RTVSPost2010Prop57
140
1.0
102
RTVSPost2010PropOp57
 70
     1
102
RTVSPropertyOp0
 70
     1
102
RTVSPropertyOp1
 70
     1
102
RTVSPropertyOp2
 70
     1
102
RTVSPropertyOp3
 70
     1
102
RTVSPropertyOp4
 70
     1
102
RTVSPropertyOp5
 70
     1
102
RTVSPropertyOp6
 70
     1
102
RTVSPropertyOp7
 70
     1
102
RTVSPropertyOp8
 70
     1
102
RTVSPropertyOp9
 70
     1
102
RTVSPropertyOp10
 70
     1
102
RTVSPropertyOp11
 70
     1
102
RTVSPropertyOp12
 70
     1
102
RTVSPropertyOp13
 70
     1
102
RTVSPropertyOp14
 70
     1
102
RTVSPropertyOp15
 70
     1
102
RTVSPropertyOp16
 70
     1
102
RTVSPropertyOp17
 70
     1
102
RTVSPropertyOp18
 70
     1
102
RTVSPropertyOp19
 70
     1
102
RTVSPropertyOp20
 70
     1
102
RTVSPropertyOp21
 70
     1
102
RTVSPropertyOp22
 70
     1
102
RTVSPropertyOp23
 70
     1
102
RTVSPropertyOp24
 70
     1
102
RTVSPropertyOp25
 70
     1
102
RTVSPropertyOp26
 70
     1
102
RTVSPropertyOp27
 70
     1
102
RTVSPropertyOp28
 70
     1
102
RTVSPropertyOp29
 70
     1
102
RTVSPropertyOp30
 70
     1
102
RTVSPropertyOp31
 70
     1
102
RTVSPropertyOp32
 70
     1
102
RTVSPropertyOp33
 70
     1
102
RTVSPropertyOp34
 70
     1
102
RTVSPropertyOp35
 70
     1
102
RTVSPropertyOp36
 70
     1
102
RTVSPropertyOp37
 70
     1
102
RTVSPropertyOp38
 70
     1
102
RTVSPropertyOp39
 70
     1
102
RTVSPropertyOp40
 70
     1
102
RTVSPropertyOp41
 70
     1
102
RTVSPropertyOp42
 70
     1
102
RTVSPropertyOp43
 70
     1
102
RTVSPropertyOp44
 70
     1
102
RTVSPropertyOp45
 70
     1
102
RTVSPropertyOp46
 70
     1
102
RTVSPropertyOp47
 70
     1
102
RTVSPropertyOp48
 70
     1
102
RTVSPropertyOp49
 70
     1
102
RTVSPropertyOp50
 70
     1
102
RTVSPropertyOp51
 70
     0
102
RTVSPropertyOp52
 70
     0
102
RTVSPropertyOp53
 70
     1
102
RTVSPropertyOp54
 70
     1
102
RTVSPropertyOp55
 70
     1
102
RTVSPropertyOp56
 70
     1
102
RTVSPropertyOp57
 70
     1
102
RTVSPropertyOp58
 70
     1
102
RTVSPropertyOp59
 70
     1
102
RTVSPropertyOp60
 70
     1
102
RTVSPropertyOp61
 70
     1
102
RTVSPropertyOp62
 70
     1
  0
XRECORD
  5
1A0
102
{ACAD_REACTORS
330
19F
102
}
330
19F
100
AcDbXrecord
280
     1
102
RTVSPost2010Prop28
280
     0
102
RTVSPost2010PropOp28
 70
     1
102
RTVSPost2010Prop29
280
     1
102
RTVSPost2010PropOp29
 70
     1
102
RTVSPost2010Prop30
280
     1
102
RTVSPost2010PropOp30
 70
     1
102
RTVSPost2010Prop31
280
     0
102
RTVSPost2010PropOp31
 70
     1
102
RTVSPost2010Prop32
280
     0
102
RTVSPost2010PropOp32
 70
     1
102
RTVSPost2010Prop33
280
     0
102
RTVSPost2010PropOp33
 70
     1
102
RTVSPost2010Prop34
280
     0
102
RTVSPost2010PropOp34
 70
     1
102
RTVSPost2010Prop35
280
     0
102
RTVSPost2010PropOp35
 70
     1
102
RTVSPost2010Prop36
280
     0
102
RTVSPost2010PropOp36
 70
     1
102
RTVSPost2010Prop37
 90
       50
102
RTVSPost2010PropOp37
 70
     1
102
RTVSPost2010Prop38
140
0.0
102
RTVSPost2010PropOp38
 70
     1
102
RTVSPost2010Prop39
140
1.0
102
RTVSPost2010PropOp39
 70
     1
102
RTVSPost2010Prop40
 90
        0
102
RTVSPost2010PropOp40
 70
     1
102
RTVSPost2010Prop41ColorIndex
 90
       18
102
RTVSPost2010Prop41ColorRGB
 90
        0
102
RTVSPost2010PropOp41
 70
     1
102
RTVSPost2010Prop42
 90
       50
102
RTVSPost2010PropOp42
 70
     1
102
RTVSPost2010Prop43
 90
        3
102
RTVSPost2010PropOp43
 70
     1
102
RTVSPost2010Prop44ColorIndex
 90
        5
102
RTVSPost2010Prop44ColorRGB
 90
      255
102
RTVSPost2010PropOp44
 70
     1
102
RTVSPost2010Prop45
280
     0
102
RTVSPost2010PropOp45
 70
     1
102
RTVSPost2010Prop46
 90
       50
102
RTVSPost2010PropOp46
 70
     1
102
RTVSPost2010Prop47
 90
       50
102
RTVSPost2010PropOp47
 70
     1
102
RTVSPost2010Prop48
 90
       50
102
RTVSPost2010PropOp48
 70
     1
102
RTVSPost2010Prop49
280
     0
102
RTVSPost2010PropOp49
 70
     1
102
RTVSPost2010Prop50
 90
       50
102
RTVSPost2010PropOp50
 70
     1
102
RTVSPost2010Prop51ColorIndex
 90
      256
102
RTVSPost2010Prop51ColorRGB
 90
-16777216
102
RTVSPost2010PropOp51
 70
     0
102
RTVSPost2010Prop52
140
1.0
102
RTVSPost2010PropOp52
 70
     0
102
RTVSPost2010Prop53
 90
        2
102
RTVSPost2010PropOp53
 70
     1
102
RTVSPost2010Prop54
  1
strokes_ogs.tif
102
RTVSPost2010PropOp54
 70
     1
102
RTVSPost2010Prop55
280
     0
102
RTVSPost2010PropOp55
 70
     1
102
RTVSPost2010Prop56
140
1.0
102
RTVSPost2010PropOp56
 70
     1
102
RTVSPost2010Prop57
140
1.0
102
RTVSPost2010PropOp57
 70
     1
102
RTVSPropertyOp0
 70
     1
102
RTVSPropertyOp1
 70
     1
102
RTVSPropertyOp2
 70
     1
102
RTVSPropertyOp3
 70
     1
102
RTVSPropertyOp4
 70
     1
102
RTVSPropertyOp5
 70
     1
102
RTVSPropertyOp6
 70
     1
102
RTVSPropertyOp7
 70
     1
102
RTVSPropertyOp8
 70
     1
102
RTVSPropertyOp9
 70
     1
102
RTVSPropertyOp10
 70
     1
102
RTVSPropertyOp11
 70
     1
102
RTVSPropertyOp12
 70
     1
102
RTVSPropertyOp13
 70
     1
102
RTVSPropertyOp14
 70
     1
102
RTVSPropertyOp15
 70
     1
102
RTVSPropertyOp16
 70
     1
102
RTVSPropertyOp17
 70
     1
102
RTVSPropertyOp18
 70
     1
102
RTVSPropertyOp19
 70
     1
102
RTVSPropertyOp20
 70
     1
102
RTVSPropertyOp21
 70
     1
102
RTVSPropertyOp22
 70
     1
102
RTVSPropertyOp23
 70
     1
102
RTVSPropertyOp24
 70
     1
102
RTVSPropertyOp25
 70
     1
102
RTVSPropertyOp26
 70
     1
102
RTVSPropertyOp27
 70
     1
102
RTVSPropertyOp28
 70
     1
102
RTVSPropertyOp29
 70
     1
102
RTVSPropertyOp30
 70
     1
102
RTVSPropertyOp31
 70
     1
102
RTVSPropertyOp32
 70
     1
102
RTVSPropertyOp33
 70
     1
102
RTVSPropertyOp34
 70
     1
102
RTVSPropertyOp35
 70
     1
102
RTVSPropertyOp36
 70
     1
102
RTVSPropertyOp37
 70
     1
102
RTVSPropertyOp38
 70
     1
102
RTVSPropertyOp39
 70
     1
102
RTVSPropertyOp40
 70
     1
102
RTVSPropertyOp41
 70
     1
102
RTVSPropertyOp42
 70
     1
102
RTVSPropertyOp43
 70
     1
102
RTVSPropertyOp44
 70
     1
102
RTVSPropertyOp45
 70
     1
102
RTVSPropertyOp46
 70
     1
102
RTVSPropertyOp47
 70
     1
102
RTVSPropertyOp48
 70
     1
102
RTVSPropertyOp49
 70
     1
102
RTVSPropertyOp50
 70
     1
102
RTVSPropertyOp51
 70
     0
102
RTVSPropertyOp52
 70
     0
102
RTVSPropertyOp53
 70
     1
102
RTVSPropertyOp54
 70
     1
102
RTVSPropertyOp55
 70
     1
102
RTVSPropertyOp56
 70
     1
102
RTVSPropertyOp57
 70
     1
102
RTVSPropertyOp58
 70
     1
102
RTVSPropertyOp59
 70
     1
102
RTVSPropertyOp60
 70
     1
102
RTVSPropertyOp61
 70
     1
102
RTVSPropertyOp62
 70
     1
  0
XRECORD
  5
1AE
102
{ACAD_REACTORS
330
1AD
102
}
330
1AD
100
AcDbXrecord
280
     1
102
RTVSPost2010Prop28
280
     0
102
RTVSPost2010PropOp28
 70
     1
102
RTVSPost2010Prop29
280
     1
102
RTVSPost2010PropOp29
 70
     1
102
RTVSPost2010Prop30
280
     1
102
RTVSPost2010PropOp30
 70
     1
102
RTVSPost2010Prop31
280
     0
102
RTVSPost2010PropOp31
 70
     1
102
RTVSPost2010Prop32
280
     0
102
RTVSPost2010PropOp32
 70
     1
102
RTVSPost2010Prop33
280
     0
102
RTVSPost2010PropOp33
 70
     1
102
RTVSPost2010Prop34
280
     0
102
RTVSPost2010PropOp34
 70
     1
102
RTVSPost2010Prop35
280
     0
102
RTVSPost2010PropOp35
 70
     1
102
RTVSPost2010Prop36
280
     0
102
RTVSPost2010PropOp36
 70
     1
102
RTVSPost2010Prop37
 90
       50
102
RTVSPost2010PropOp37
 70
     1
102
RTVSPost2010Prop38
140
0.0
102
RTVSPost2010PropOp38
 70
     1
102
RTVSPost2010Prop39
140
1.0
102
RTVSPost2010PropOp39
 70
     1
102
RTVSPost2010Prop40
 90
        0
102
RTVSPost2010PropOp40
 70
     1
102
RTVSPost2010Prop41ColorIndex
 90
       18
102
RTVSPost2010Prop41ColorRGB
 90
        0
102
RTVSPost2010PropOp41
 70
     1
102
RTVSPost2010Prop42
 90
       50
102
RTVSPost2010PropOp42
 70
     1
102
RTVSPost2010Prop43
 90
        3
102
RTVSPost2010PropOp43
 70
     1
102
RTVSPost2010Prop44ColorIndex
 90
        5
102
RTVSPost2010Prop44ColorRGB
 90
      255
102
RTVSPost2010PropOp44
 70
     1
102
RTVSPost2010Prop45
280
     0
102
RTVSPost2010PropOp45
 70
     1
102
RTVSPost2010Prop46
 90
       50
102
RTVSPost2010PropOp46
 70
     1
102
RTVSPost2010Prop47
 90
       50
102
RTVSPost2010PropOp47
 70
     1
102
RTVSPost2010Prop48
 90
       50
102
RTVSPost2010PropOp48
 70
     1
102
RTVSPost2010Prop49
280
     0
102
RTVSPost2010PropOp49
 70
     1
102
RTVSPost2010Prop50
 90
       50
102
RTVSPost2010PropOp50
 70
     1
102
RTVSPost2010Prop51ColorIndex
 90
      256
102
RTVSPost2010Prop51ColorRGB
 90
-16777216
102
RTVSPost2010PropOp51
 70
     0
102
RTVSPost2010Prop52
140
1.0
102
RTVSPost2010PropOp52
 70
     0
102
RTVSPost2010Prop53
 90
        2
102
RTVSPost2010PropOp53
 70
     1
102
RTVSPost2010Prop54
  1
strokes_ogs.tif
102
RTVSPost2010PropOp54
 70
     1
102
RTVSPost2010Prop55
280
     0
102
RTVSPost2010PropOp55
 70
     1
102
RTVSPost2010Prop56
140
1.0
102
RTVSPost2010PropOp56
 70
     1
102
RTVSPost2010Prop57
140
1.0
102
RTVSPost2010PropOp57
 70
     1
102
RTVSPropertyOp0
 70
     1
102
RTVSPropertyOp1
 70
     1
102
RTVSPropertyOp2
 70
     1
102
RTVSPropertyOp3
 70
     1
102
RTVSPropertyOp4
 70
     1
102
RTVSPropertyOp5
 70
     1
102
RTVSPropertyOp6
 70
     1
102
RTVSPropertyOp7
 70
     1
102
RTVSPropertyOp8
 70
     1
102
RTVSPropertyOp9
 70
     1
102
RTVSPropertyOp10
 70
     1
102
RTVSPropertyOp11
 70
     1
102
RTVSPropertyOp12
 70
     1
102
RTVSPropertyOp13
 70
     1
102
RTVSPropertyOp14
 70
     1
102
RTVSPropertyOp15
 70
     1
102
RTVSPropertyOp16
 70
     1
102
RTVSPropertyOp17
 70
     1
102
RTVSPropertyOp18
 70
     1
102
RTVSPropertyOp19
 70
     1
102
RTVSPropertyOp20
 70
     1
102
RTVSPropertyOp21
 70
     1
102
RTVSPropertyOp22
 70
     1
102
RTVSPropertyOp23
 70
     1
102
RTVSPropertyOp24
 70
     1
102
RTVSPropertyOp25
 70
     1
102
RTVSPropertyOp26
 70
     1
102
RTVSPropertyOp27
 70
     1
102
RTVSPropertyOp28
 70
     1
102
RTVSPropertyOp29
 70
     1
102
RTVSPropertyOp30
 70
     1
102
RTVSPropertyOp31
 70
     1
102
RTVSPropertyOp32
 70
     1
102
RTVSPropertyOp33
 70
     1
102
RTVSPropertyOp34
 70
     1
102
RTVSPropertyOp35
 70
     1
102
RTVSPropertyOp36
 70
     1
102
RTVSPropertyOp37
 70
     1
102
RTVSPropertyOp38
 70
     1
102
RTVSPropertyOp39
 70
     1
102
RTVSPropertyOp40
 70
     1
102
RTVSPropertyOp41
 70
     1
102
RTVSPropertyOp42
 70
     1
102
RTVSPropertyOp43
 70
     1
102
RTVSPropertyOp44
 70
     1
102
RTVSPropertyOp45
 70
     1
102
RTVSPropertyOp46
 70
     1
102
RTVSPropertyOp47
 70
     1
102
RTVSPropertyOp48
 70
     1
102
RTVSPropertyOp49
 70
     1
102
RTVSPropertyOp50
 70
     1
102
RTVSPropertyOp51
 70
     0
102
RTVSPropertyOp52
 70
     0
102
RTVSPropertyOp53
 70
     1
102
RTVSPropertyOp54
 70
     1
102
RTVSPropertyOp55
 70
     1
102
RTVSPropertyOp56
 70
     1
102
RTVSPropertyOp57
 70
     1
102
RTVSPropertyOp58
 70
     1
102
RTVSPropertyOp59
 70
     1
102
RTVSPropertyOp60
 70
     1
102
RTVSPropertyOp61
 70
     1
102
RTVSPropertyOp62
 70
     1
  0
XRECORD
  5
1B6
102
{ACAD_REACTORS
330
1B5
102
}
330
1B5
100
AcDbXrecord
280
     1
102
RTVSPost2010Prop28
280
     0
102
RTVSPost2010PropOp28
 70
     1
102
RTVSPost2010Prop29
280
     1
102
RTVSPost2010PropOp29
 70
     1
102
RTVSPost2010Prop30
280
     1
102
RTVSPost2010PropOp30
 70
     1
102
RTVSPost2010Prop31
280
     0
102
RTVSPost2010PropOp31
 70
     1
102
RTVSPost2010Prop32
280
     0
102
RTVSPost2010PropOp32
 70
     1
102
RTVSPost2010Prop33
280
     0
102
RTVSPost2010PropOp33
 70
     1
102
RTVSPost2010Prop34
280
     0
102
RTVSPost2010PropOp34
 70
     1
102
RTVSPost2010Prop35
280
     0
102
RTVSPost2010PropOp35
 70
     1
102
RTVSPost2010Prop36
280
     0
102
RTVSPost2010PropOp36
 70
     1
102
RTVSPost2010Prop37
 90
       50
102
RTVSPost2010PropOp37
 70
     1
102
RTVSPost2010Prop38
140
0.0
102
RTVSPost2010PropOp38
 70
     1
102
RTVSPost2010Prop39
140
1.0
102
RTVSPost2010PropOp39
 70
     1
102
RTVSPost2010Prop40
 90
        0
102
RTVSPost2010PropOp40
 70
     1
102
RTVSPost2010Prop41ColorIndex
 90
       18
102
RTVSPost2010Prop41ColorRGB
 90
        0
102
RTVSPost2010PropOp41
 70
     1
102
RTVSPost2010Prop42
 90
       50
102
RTVSPost2010PropOp42
 70
     1
102
RTVSPost2010Prop43
 90
        3
102
RTVSPost2010PropOp43
 70
     1
102
RTVSPost2010Prop44ColorIndex
 90
        5
102
RTVSPost2010Prop44ColorRGB
 90
      255
102
RTVSPost2010PropOp44
 70
     1
102
RTVSPost2010Prop45
280
     0
102
RTVSPost2010PropOp45
 70
     1
102
RTVSPost2010Prop46
 90
       50
102
RTVSPost2010PropOp46
 70
     1
102
RTVSPost2010Prop47
 90
       50
102
RTVSPost2010PropOp47
 70
     1
102
RTVSPost2010Prop48
 90
       50
102
RTVSPost2010PropOp48
 70
     1
102
RTVSPost2010Prop49
280
     0
102
RTVSPost2010PropOp49
 70
     1
102
RTVSPost2010Prop50
 90
       50
102
RTVSPost2010PropOp50
 70
     1
102
RTVSPost2010Prop51ColorIndex
 90
      256
102
RTVSPost2010Prop51ColorRGB
 90
-16777216
102
RTVSPost2010PropOp51
 70
     0
102
RTVSPost2010Prop52
140
1.0
102
RTVSPost2010PropOp52
 70
     0
102
RTVSPost2010Prop53
 90
        2
102
RTVSPost2010PropOp53
 70
     1
102
RTVSPost2010Prop54
  1
strokes_ogs.tif
102
RTVSPost2010PropOp54
 70
     1
102
RTVSPost2010Prop55
280
     0
102
RTVSPost2010PropOp55
 70
     1
102
RTVSPost2010Prop56
140
1.0
102
RTVSPost2010PropOp56
 70
     1
102
RTVSPost2010Prop57
140
1.0
102
RTVSPost2010PropOp57
 70
     1
102
RTVSPropertyOp0
 70
     1
102
RTVSPropertyOp1
 70
     1
102
RTVSPropertyOp2
 70
     1
102
RTVSPropertyOp3
 70
     1
102
RTVSPropertyOp4
 70
     1
102
RTVSPropertyOp5
 70
     1
102
RTVSPropertyOp6
 70
     1
102
RTVSPropertyOp7
 70
     1
102
RTVSPropertyOp8
 70
     1
102
RTVSPropertyOp9
 70
     1
102
RTVSPropertyOp10
 70
     1
102
RTVSPropertyOp11
 70
     1
102
RTVSPropertyOp12
 70
     1
102
RTVSPropertyOp13
 70
     1
102
RTVSPropertyOp14
 70
     1
102
RTVSPropertyOp15
 70
     1
102
RTVSPropertyOp16
 70
     1
102
RTVSPropertyOp17
 70
     1
102
RTVSPropertyOp18
 70
     1
102
RTVSPropertyOp19
 70
     1
102
RTVSPropertyOp20
 70
     1
102
RTVSPropertyOp21
 70
     1
102
RTVSPropertyOp22
 70
     1
102
RTVSPropertyOp23
 70
     1
102
RTVSPropertyOp24
 70
     1
102
RTVSPropertyOp25
 70
     1
102
RTVSPropertyOp26
 70
     1
102
RTVSPropertyOp27
 70
     1
102
RTVSPropertyOp28
 70
     1
102
RTVSPropertyOp29
 70
     1
102
RTVSPropertyOp30
 70
     1
102
RTVSPropertyOp31
 70
     1
102
RTVSPropertyOp32
 70
     1
102
RTVSPropertyOp33
 70
     1
102
RTVSPropertyOp34
 70
     1
102
RTVSPropertyOp35
 70
     1
102
RTVSPropertyOp36
 70
     1
102
RTVSPropertyOp37
 70
     1
102
RTVSPropertyOp38
 70
     1
102
RTVSPropertyOp39
 70
     1
102
RTVSPropertyOp40
 70
     1
102
RTVSPropertyOp41
 70
     1
102
RTVSPropertyOp42
 70
     1
102
RTVSPropertyOp43
 70
     1
102
RTVSPropertyOp44
 70
     1
102
RTVSPropertyOp45
 70
     1
102
RTVSPropertyOp46
 70
     1
102
RTVSPropertyOp47
 70
     1
102
RTVSPropertyOp48
 70
     1
102
RTVSPropertyOp49
 70
     1
102
RTVSPropertyOp50
 70
     1
102
RTVSPropertyOp51
 70
     0
102
RTVSPropertyOp52
 70
     0
102
RTVSPropertyOp53
 70
     1
102
RTVSPropertyOp54
 70
     1
102
RTVSPropertyOp55
 70
     1
102
RTVSPropertyOp56
 70
     1
102
RTVSPropertyOp57
 70
     1
102
RTVSPropertyOp58
 70
     1
102
RTVSPropertyOp59
 70
     1
102
RTVSPropertyOp60
 70
     1
102
RTVSPropertyOp61
 70
     1
102
RTVSPropertyOp62
 70
     1
  0
XRECORD
  5
1A8
102
{ACAD_REACTORS
330
1A7
102
}
330
1A7
100
AcDbXrecord
280
     1
102
RTVSPost2010Prop28
280
     0
102
RTVSPost2010PropOp28
 70
     1
102
RTVSPost2010Prop29
280
     1
102
RTVSPost2010PropOp29
 70
     1
102
RTVSPost2010Prop30
280
     1
102
RTVSPost2010PropOp30
 70
     1
102
RTVSPost2010Prop31
280
     0
102
RTVSPost2010PropOp31
 70
     1
102
RTVSPost2010Prop32
280
     0
102
RTVSPost2010PropOp32
 70
     1
102
RTVSPost2010Prop33
280
     0
102
RTVSPost2010PropOp33
 70
     1
102
RTVSPost2010Prop34
280
     0
102
RTVSPost2010PropOp34
 70
     1
102
RTVSPost2010Prop35
280
     0
102
RTVSPost2010PropOp35
 70
     1
102
RTVSPost2010Prop36
280
     0
102
RTVSPost2010PropOp36
 70
     1
102
RTVSPost2010Prop37
 90
       50
102
RTVSPost2010PropOp37
 70
     1
102
RTVSPost2010Prop38
140
0.0
102
RTVSPost2010PropOp38
 70
     1
102
RTVSPost2010Prop39
140
1.0
102
RTVSPost2010PropOp39
 70
     1
102
RTVSPost2010Prop40
 90
        0
102
RTVSPost2010PropOp40
 70
     1
102
RTVSPost2010Prop41ColorIndex
 90
       18
102
RTVSPost2010Prop41ColorRGB
 90
        0
102
RTVSPost2010PropOp41
 70
     1
102
RTVSPost2010Prop42
 90
       50
102
RTVSPost2010PropOp42
 70
     1
102
RTVSPost2010Prop43
 90
        3
102
RTVSPost2010PropOp43
 70
     1
102
RTVSPost2010Prop44ColorIndex
 90
        5
102
RTVSPost2010Prop44ColorRGB
 90
      255
102
RTVSPost2010PropOp44
 70
     1
102
RTVSPost2010Prop45
280
     0
102
RTVSPost2010PropOp45
 70
     1
102
RTVSPost2010Prop46
 90
       50
102
RTVSPost2010PropOp46
 70
     1
102
RTVSPost2010Prop47
 90
       50
102
RTVSPost2010PropOp47
 70
     1
102
RTVSPost2010Prop48
 90
       50
102
RTVSPost2010PropOp48
 70
     1
102
RTVSPost2010Prop49
280
     0
102
RTVSPost2010PropOp49
 70
     1
102
RTVSPost2010Prop50
 90
       50
102
RTVSPost2010PropOp50
 70
     1
102
RTVSPost2010Prop51ColorIndex
 90
      256
102
RTVSPost2010Prop51ColorRGB
 90
-16777216
102
RTVSPost2010PropOp51
 70
     0
102
RTVSPost2010Prop52
140
1.0
102
RTVSPost2010PropOp52
 70
     0
102
RTVSPost2010Prop53
 90
        2
102
RTVSPost2010PropOp53
 70
     1
102
RTVSPost2010Prop54
  1
strokes_ogs.tif
102
RTVSPost2010PropOp54
 70
     1
102
RTVSPost2010Prop55
280
     0
102
RTVSPost2010PropOp55
 70
     1
102
RTVSPost2010Prop56
140
1.0
102
RTVSPost2010PropOp56
 70
     1
102
RTVSPost2010Prop57
140
1.0
102
RTVSPost2010PropOp57
 70
     1
102
RTVSPropertyOp0
 70
     1
102
RTVSPropertyOp1
 70
     1
102
RTVSPropertyOp2
 70
     1
102
RTVSPropertyOp3
 70
     1
102
RTVSPropertyOp4
 70
     1
102
RTVSPropertyOp5
 70
     1
102
RTVSPropertyOp6
 70
     1
102
RTVSPropertyOp7
 70
     1
102
RTVSPropertyOp8
 70
     1
102
RTVSPropertyOp9
 70
     1
102
RTVSPropertyOp10
 70
     1
102
RTVSPropertyOp11
 70
     1
102
RTVSPropertyOp12
 70
     1
102
RTVSPropertyOp13
 70
     1
102
RTVSPropertyOp14
 70
     1
102
RTVSPropertyOp15
 70
     1
102
RTVSPropertyOp16
 70
     1
102
RTVSPropertyOp17
 70
     1
102
RTVSPropertyOp18
 70
     1
102
RTVSPropertyOp19
 70
     1
102
RTVSPropertyOp20
 70
     1
102
RTVSPropertyOp21
 70
     1
102
RTVSPropertyOp22
 70
     1
102
RTVSPropertyOp23
 70
     1
102
RTVSPropertyOp24
 70
     1
102
RTVSPropertyOp25
 70
     1
102
RTVSPropertyOp26
 70
     1
102
RTVSPropertyOp27
 70
     1
102
RTVSPropertyOp28
 70
     1
102
RTVSPropertyOp29
 70
     1
102
RTVSPropertyOp30
 70
     1
102
RTVSPropertyOp31
 70
     1
102
RTVSPropertyOp32
 70
     1
102
RTVSPropertyOp33
 70
     1
102
RTVSPropertyOp34
 70
     1
102
RTVSPropertyOp35
 70
     1
102
RTVSPropertyOp36
 70
     1
102
RTVSPropertyOp37
 70
     1
102
RTVSPropertyOp38
 70
     1
102
RTVSPropertyOp39
 70
     1
102
RTVSPropertyOp40
 70
     1
102
RTVSPropertyOp41
 70
     1
102
RTVSPropertyOp42
 70
     1
102
RTVSPropertyOp43
 70
     1
102
RTVSPropertyOp44
 70
     1
102
RTVSPropertyOp45
 70
     1
102
RTVSPropertyOp46
 70
     1
102
RTVSPropertyOp47
 70
     1
102
RTVSPropertyOp48
 70
     1
102
RTVSPropertyOp49
 70
     1
102
RTVSPropertyOp50
 70
     1
102
RTVSPropertyOp51
 70
     0
102
RTVSPropertyOp52
 70
     0
102
RTVSPropertyOp53
 70
     1
102
RTVSPropertyOp54
 70
     1
102
RTVSPropertyOp55
 70
     1
102
RTVSPropertyOp56
 70
     1
102
RTVSPropertyOp57
 70
     1
102
RTVSPropertyOp58
 70
     1
102
RTVSPropertyOp59
 70
     1
102
RTVSPropertyOp60
 70
     1
102
RTVSPropertyOp61
 70
     1
102
RTVSPropertyOp62
 70
     1
  0
XRECORD
  5
1AC
102
{ACAD_REACTORS
330
1AB
102
}
330
1AB
100
AcDbXrecord
280
     1
102
RTVSPost2010Prop28
280
     0
102
RTVSPost2010PropOp28
 70
     1
102
RTVSPost2010Prop29
280
     1
102
RTVSPost2010PropOp29
 70
     1
102
RTVSPost2010Prop30
280
     1
102
RTVSPost2010PropOp30
 70
     1
102
RTVSPost2010Prop31
280
     0
102
RTVSPost2010PropOp31
 70
     1
102
RTVSPost2010Prop32
280
     0
102
RTVSPost2010PropOp32
 70
     1
102
RTVSPost2010Prop33
280
     0
102
RTVSPost2010PropOp33
 70
     1
102
RTVSPost2010Prop34
280
     0
102
RTVSPost2010PropOp34
 70
     1
102
RTVSPost2010Prop35
280
     0
102
RTVSPost2010PropOp35
 70
     1
102
RTVSPost2010Prop36
280
     0
102
RTVSPost2010PropOp36
 70
     1
102
RTVSPost2010Prop37
 90
       50
102
RTVSPost2010PropOp37
 70
     1
102
RTVSPost2010Prop38
140
0.0
102
RTVSPost2010PropOp38
 70
     1
102
RTVSPost2010Prop39
140
1.0
102
RTVSPost2010PropOp39
 70
     1
102
RTVSPost2010Prop40
 90
        0
102
RTVSPost2010PropOp40
 70
     1
102
RTVSPost2010Prop41ColorIndex
 90
       18
102
RTVSPost2010Prop41ColorRGB
 90
        0
102
RTVSPost2010PropOp41
 70
     1
102
RTVSPost2010Prop42
 90
       50
102
RTVSPost2010PropOp42
 70
     1
102
RTVSPost2010Prop43
 90
        3
102
RTVSPost2010PropOp43
 70
     1
102
RTVSPost2010Prop44ColorIndex
 90
        5
102
RTVSPost2010Prop44ColorRGB
 90
      255
102
RTVSPost2010PropOp44
 70
     1
102
RTVSPost2010Prop45
280
     0
102
RTVSPost2010PropOp45
 70
     1
102
RTVSPost2010Prop46
 90
       50
102
RTVSPost2010PropOp46
 70
     1
102
RTVSPost2010Prop47
 90
       50
102
RTVSPost2010PropOp47
 70
     1
102
RTVSPost2010Prop48
 90
       50
102
RTVSPost2010PropOp48
 70
     1
102
RTVSPost2010Prop49
280
     0
102
RTVSPost2010PropOp49
 70
     1
102
RTVSPost2010Prop50
 90
       50
102
RTVSPost2010PropOp50
 70
     1
102
RTVSPost2010Prop51ColorIndex
 90
      256
102
RTVSPost2010Prop51ColorRGB
 90
-16777216
102
RTVSPost2010PropOp51
 70
     0
102
RTVSPost2010Prop52
140
1.0
102
RTVSPost2010PropOp52
 70
     0
102
RTVSPost2010Prop53
 90
        2
102
RTVSPost2010PropOp53
 70
     1
102
RTVSPost2010Prop54
  1
strokes_ogs.tif
102
RTVSPost2010PropOp54
 70
     1
102
RTVSPost2010Prop55
280
     0
102
RTVSPost2010PropOp55
 70
     1
102
RTVSPost2010Prop56
140
1.0
102
RTVSPost2010PropOp56
 70
     1
102
RTVSPost2010Prop57
140
1.0
102
RTVSPost2010PropOp57
 70
     1
102
RTVSPropertyOp0
 70
     1
102
RTVSPropertyOp1
 70
     1
102
RTVSPropertyOp2
 70
     1
102
RTVSPropertyOp3
 70
     1
102
RTVSPropertyOp4
 70
     1
102
RTVSPropertyOp5
 70
     1
102
RTVSPropertyOp6
 70
     1
102
RTVSPropertyOp7
 70
     1
102
RTVSPropertyOp8
 70
     1
102
RTVSPropertyOp9
 70
     1
102
RTVSPropertyOp10
 70
     1
102
RTVSPropertyOp11
 70
     1
102
RTVSPropertyOp12
 70
     1
102
RTVSPropertyOp13
 70
     1
102
RTVSPropertyOp14
 70
     1
102
RTVSPropertyOp15
 70
     1
102
RTVSPropertyOp16
 70
     1
102
RTVSPropertyOp17
 70
     1
102
RTVSPropertyOp18
 70
     1
102
RTVSPropertyOp19
 70
     1
102
RTVSPropertyOp20
 70
     1
102
RTVSPropertyOp21
 70
     1
102
RTVSPropertyOp22
 70
     1
102
RTVSPropertyOp23
 70
     1
102
RTVSPropertyOp24
 70
     1
102
RTVSPropertyOp25
 70
     1
102
RTVSPropertyOp26
 70
     1
102
RTVSPropertyOp27
 70
     1
102
RTVSPropertyOp28
 70
     1
102
RTVSPropertyOp29
 70
     1
102
RTVSPropertyOp30
 70
     1
102
RTVSPropertyOp31
 70
     1
102
RTVSPropertyOp32
 70
     1
102
RTVSPropertyOp33
 70
     1
102
RTVSPropertyOp34
 70
     1
102
RTVSPropertyOp35
 70
     1
102
RTVSPropertyOp36
 70
     1
102
RTVSPropertyOp37
 70
     1
102
RTVSPropertyOp38
 70
     1
102
RTVSPropertyOp39
 70
     1
102
RTVSPropertyOp40
 70
     1
102
RTVSPropertyOp41
 70
     1
102
RTVSPropertyOp42
 70
     1
102
RTVSPropertyOp43
 70
     1
102
RTVSPropertyOp44
 70
     1
102
RTVSPropertyOp45
 70
     1
102
RTVSPropertyOp46
 70
     1
102
RTVSPropertyOp47
 70
     1
102
RTVSPropertyOp48
 70
     1
102
RTVSPropertyOp49
 70
     1
102
RTVSPropertyOp50
 70
     1
102
RTVSPropertyOp51
 70
     0
102
RTVSPropertyOp52
 70
     0
102
RTVSPropertyOp53
 70
     1
102
RTVSPropertyOp54
 70
     1
102
RTVSPropertyOp55
 70
     1
102
RTVSPropertyOp56
 70
     1
102
RTVSPropertyOp57
 70
     1
102
RTVSPropertyOp58
 70
     1
102
RTVSPropertyOp59
 70
     1
102
RTVSPropertyOp60
 70
     1
102
RTVSPropertyOp61
 70
     1
102
RTVSPropertyOp62
 70
     1
  0
XRECORD
  5
1C6
102
{ACAD_REACTORS
330
1C5
102
}
330
1C5
100
AcDbXrecord
280
     1
102
RTVSPost2010Prop28
280
     0
102
RTVSPost2010PropOp28
 70
     0
102
RTVSPost2010Prop29
280
     1
102
RTVSPost2010PropOp29
 70
     0
102
RTVSPost2010Prop30
280
     1
102
RTVSPost2010PropOp30
 70
     0
102
RTVSPost2010Prop31
280
     0
102
RTVSPost2010PropOp31
 70
     0
102
RTVSPost2010Prop32
280
     0
102
RTVSPost2010PropOp32
 70
     0
102
RTVSPost2010Prop33
280
     0
102
RTVSPost2010PropOp33
 70
     0
102
RTVSPost2010Prop34
280
     0
102
RTVSPost2010PropOp34
 70
     0
102
RTVSPost2010Prop35
280
     0
102
RTVSPost2010PropOp35
 70
     0
102
RTVSPost2010Prop36
280
     0
102
RTVSPost2010PropOp36
 70
     0
102
RTVSPost2010Prop37
 90
       50
102
RTVSPost2010PropOp37
 70
     0
102
RTVSPost2010Prop38
140
0.0
102
RTVSPost2010PropOp38
 70
     0
102
RTVSPost2010Prop39
140
1.0
102
RTVSPost2010PropOp39
 70
     0
102
RTVSPost2010Prop40
 90
        0
102
RTVSPost2010PropOp40
 70
     0
102
RTVSPost2010Prop41ColorIndex
 90
       18
102
RTVSPost2010Prop41ColorRGB
 90
        0
102
RTVSPost2010PropOp41
 70
     0
102
RTVSPost2010Prop42
 90
       50
102
RTVSPost2010PropOp42
 70
     0
102
RTVSPost2010Prop43
 90
        3
102
RTVSPost2010PropOp43
 70
     0
102
RTVSPost2010Prop44ColorIndex
 90
        5
102
RTVSPost2010Prop44ColorRGB
 90
      255
102
RTVSPost2010PropOp44
 70
     0
102
RTVSPost2010Prop45
280
     0
102
RTVSPost2010PropOp45
 70
     0
102
RTVSPost2010Prop46
 90
       50
102
RTVSPost2010PropOp46
 70
     0
102
RTVSPost2010Prop47
 90
       50
102
RTVSPost2010PropOp47
 70
     0
102
RTVSPost2010Prop48
 90
       50
102
RTVSPost2010PropOp48
 70
     0
102
RTVSPost2010Prop49
280
     0
102
RTVSPost2010PropOp49
 70
     0
102
RTVSPost2010Prop50
 90
       50
102
RTVSPost2010PropOp50
 70
     0
102
RTVSPost2010Prop51ColorIndex
 90
      256
102
RTVSPost2010Prop51ColorRGB
 90
-16777216
102
RTVSPost2010PropOp51
 70
     0
102
RTVSPost2010Prop52
140
1.0
102
RTVSPost2010PropOp52
 70
     0
102
RTVSPost2010Prop53
 90
        2
102
RTVSPost2010PropOp53
 70
     0
102
RTVSPost2010Prop54
  1
strokes_ogs.tif
102
RTVSPost2010PropOp54
 70
     0
102
RTVSPost2010Prop55
280
     0
102
RTVSPost2010PropOp55
 70
     0
102
RTVSPost2010Prop56
140
1.0
102
RTVSPost2010PropOp56
 70
     0
102
RTVSPost2010Prop57
140
1.0
102
RTVSPost2010PropOp57
 70
     0
102
RTVSPropertyOp0
 70
     0
102
RTVSPropertyOp1
 70
     0
102
RTVSPropertyOp2
 70
     0
102
RTVSPropertyOp3
 70
     0
102
RTVSPropertyOp4
 70
     0
102
RTVSPropertyOp5
 70
     0
102
RTVSPropertyOp6
 70
     0
102
RTVSPropertyOp7
 70
     0
102
RTVSPropertyOp8
 70
     0
102
RTVSPropertyOp9
 70
     0
102
RTVSPropertyOp10
 70
     0
102
RTVSPropertyOp11
 70
     0
102
RTVSPropertyOp12
 70
     0
102
RTVSPropertyOp13
 70
     0
102
RTVSPropertyOp14
 70
     2
102
RTVSPropertyOp15
 70
     0
102
RTVSPropertyOp16
 70
     0
102
RTVSPropertyOp17
 70
     0
102
RTVSPropertyOp18
 70
     0
102
RTVSPropertyOp19
 70
     0
102
RTVSPropertyOp20
 70
     0
102
RTVSPropertyOp21
 70
     0
102
RTVSPropertyOp22
 70
     0
102
RTVSPropertyOp23
 70
     0
102
RTVSPropertyOp24
 70
     0
102
RTVSPropertyOp25
 70
     0
102
RTVSPropertyOp26
 70
     0
102
RTVSPropertyOp27
 70
     0
102
RTVSPropertyOp28
 70
     0
102
RTVSPropertyOp29
 70
     0
102
RTVSPropertyOp30
 70
     0
102
RTVSPropertyOp31
 70
     0
102
RTVSPropertyOp32
 70
     0
102
RTVSPropertyOp33
 70
     0
102
RTVSPropertyOp34
 70
     0
102
RTVSPropertyOp35
 70
     0
102
RTVSPropertyOp36
 70
     0
102
RTVSPropertyOp37
 70
     0
102
RTVSPropertyOp38
 70
     0
102
RTVSPropertyOp39
 70
     0
102
RTVSPropertyOp40
 70
     0
102
RTVSPropertyOp41
 70
     0
102
RTVSPropertyOp42
 70
     0
102
RTVSPropertyOp43
 70
     0
102
RTVSPropertyOp44
 70
     0
102
RTVSPropertyOp45
 70
     0
102
RTVSPropertyOp46
 70
     0
102
RTVSPropertyOp47
 70
     0
102
RTVSPropertyOp48
 70
     0
102
RTVSPropertyOp49
 70
     0
102
RTVSPropertyOp50
 70
     0
102
RTVSPropertyOp51
 70
     0
102
RTVSPropertyOp52
 70
     0
102
RTVSPropertyOp53
 70
     0
102
RTVSPropertyOp54
 70
     0
102
RTVSPropertyOp55
 70
     0
102
RTVSPropertyOp56
 70
     0
102
RTVSPropertyOp57
 70
     0
102
RTVSPropertyOp58
 70
     0
102
RTVSPropertyOp59
 70
     0
102
RTVSPropertyOp60
 70
     0
102
RTVSPropertyOp61
 70
     0
102
RTVSPropertyOp62
 70
     0
  0
XRECORD
  5
1B4
102
{ACAD_REACTORS
330
1B3
102
}
330
1B3
100
AcDbXrecord
280
     1
102
RTVSPost2010Prop28
280
     0
102
RTVSPost2010PropOp28
 70
     1
102
RTVSPost2010Prop29
280
     1
102
RTVSPost2010PropOp29
 70
     1
102
RTVSPost2010Prop30
280
     1
102
RTVSPost2010PropOp30
 70
     1
102
RTVSPost2010Prop31
280
     0
102
RTVSPost2010PropOp31
 70
     1
102
RTVSPost2010Prop32
280
     0
102
RTVSPost2010PropOp32
 70
     1
102
RTVSPost2010Prop33
280
     0
102
RTVSPost2010PropOp33
 70
     1
102
RTVSPost2010Prop34
280
     0
102
RTVSPost2010PropOp34
 70
     1
102
RTVSPost2010Prop35
280
     0
102
RTVSPost2010PropOp35
 70
     1
102
RTVSPost2010Prop36
280
     0
102
RTVSPost2010PropOp36
 70
     1
102
RTVSPost2010Prop37
 90
       50
102
RTVSPost2010PropOp37
 70
     1
102
RTVSPost2010Prop38
140
0.0
102
RTVSPost2010PropOp38
 70
     1
102
RTVSPost2010Prop39
140
1.0
102
RTVSPost2010PropOp39
 70
     1
102
RTVSPost2010Prop40
 90
        0
102
RTVSPost2010PropOp40
 70
     1
102
RTVSPost2010Prop41ColorIndex
 90
       18
102
RTVSPost2010Prop41ColorRGB
 90
        0
102
RTVSPost2010PropOp41
 70
     1
102
RTVSPost2010Prop42
 90
       50
102
RTVSPost2010PropOp42
 70
     1
102
RTVSPost2010Prop43
 90
        3
102
RTVSPost2010PropOp43
 70
     1
102
RTVSPost2010Prop44ColorIndex
 90
        5
102
RTVSPost2010Prop44ColorRGB
 90
      255
102
RTVSPost2010PropOp44
 70
     1
102
RTVSPost2010Prop45
280
     0
102
RTVSPost2010PropOp45
 70
     1
102
RTVSPost2010Prop46
 90
       50
102
RTVSPost2010PropOp46
 70
     1
102
RTVSPost2010Prop47
 90
       50
102
RTVSPost2010PropOp47
 70
     1
102
RTVSPost2010Prop48
 90
       50
102
RTVSPost2010PropOp48
 70
     1
102
RTVSPost2010Prop49
280
     0
102
RTVSPost2010PropOp49
 70
     1
102
RTVSPost2010Prop50
 90
       50
102
RTVSPost2010PropOp50
 70
     1
102
RTVSPost2010Prop51ColorIndex
 90
      256
102
RTVSPost2010Prop51ColorRGB
 90
-16777216
102
RTVSPost2010PropOp51
 70
     0
102
RTVSPost2010Prop52
140
1.0
102
RTVSPost2010PropOp52
 70
     0
102
RTVSPost2010Prop53
 90
        2
102
RTVSPost2010PropOp53
 70
     1
102
RTVSPost2010Prop54
  1
strokes_ogs.tif
102
RTVSPost2010PropOp54
 70
     1
102
RTVSPost2010Prop55
280
     0
102
RTVSPost2010PropOp55
 70
     1
102
RTVSPost2010Prop56
140
1.0
102
RTVSPost2010PropOp56
 70
     1
102
RTVSPost2010Prop57
140
1.0
102
RTVSPost2010PropOp57
 70
     1
102
RTVSPropertyOp0
 70
     1
102
RTVSPropertyOp1
 70
     1
102
RTVSPropertyOp2
 70
     1
102
RTVSPropertyOp3
 70
     1
102
RTVSPropertyOp4
 70
     1
102
RTVSPropertyOp5
 70
     1
102
RTVSPropertyOp6
 70
     1
102
RTVSPropertyOp7
 70
     1
102
RTVSPropertyOp8
 70
     1
102
RTVSPropertyOp9
 70
     1
102
RTVSPropertyOp10
 70
     1
102
RTVSPropertyOp11
 70
     1
102
RTVSPropertyOp12
 70
     1
102
RTVSPropertyOp13
 70
     1
102
RTVSPropertyOp14
 70
     1
102
RTVSPropertyOp15
 70
     1
102
RTVSPropertyOp16
 70
     1
102
RTVSPropertyOp17
 70
     1
102
RTVSPropertyOp18
 70
     1
102
RTVSPropertyOp19
 70
     1
102
RTVSPropertyOp20
 70
     1
102
RTVSPropertyOp21
 70
     1
102
RTVSPropertyOp22
 70
     1
102
RTVSPropertyOp23
 70
     1
102
RTVSPropertyOp24
 70
     1
102
RTVSPropertyOp25
 70
     1
102
RTVSPropertyOp26
 70
     1
102
RTVSPropertyOp27
 70
     1
102
RTVSPropertyOp28
 70
     1
102
RTVSPropertyOp29
 70
     1
102
RTVSPropertyOp30
 70
     1
102
RTVSPropertyOp31
 70
     1
102
RTVSPropertyOp32
 70
     1
102
RTVSPropertyOp33
 70
     1
102
RTVSPropertyOp34
 70
     1
102
RTVSPropertyOp35
 70
     1
102
RTVSPropertyOp36
 70
     1
102
RTVSPropertyOp37
 70
     1
102
RTVSPropertyOp38
 70
     1
102
RTVSPropertyOp39
 70
     1
102
RTVSPropertyOp40
 70
     1
102
RTVSPropertyOp41
 70
     1
102
RTVSPropertyOp42
 70
     1
102
RTVSPropertyOp43
 70
     1
102
RTVSPropertyOp44
 70
     1
102
RTVSPropertyOp45
 70
     1
102
RTVSPropertyOp46
 70
     1
102
RTVSPropertyOp47
 70
     1
102
RTVSPropertyOp48
 70
     1
102
RTVSPropertyOp49
 70
     1
102
RTVSPropertyOp50
 70
     1
102
RTVSPropertyOp51
 70
     0
102
RTVSPropertyOp52
 70
     0
102
RTVSPropertyOp53
 70
     1
102
RTVSPropertyOp54
 70
     1
102
RTVSPropertyOp55
 70
     1
102
RTVSPropertyOp56
 70
     1
102
RTVSPropertyOp57
 70
     1
102
RTVSPropertyOp58
 70
     1
102
RTVSPropertyOp59
 70
     1
102
RTVSPropertyOp60
 70
     1
102
RTVSPropertyOp61
 70
     1
102
RTVSPropertyOp62
 70
     1
  0
XRECORD
  5
198
102
{ACAD_REACTORS
330
197
102
}
330
197
100
AcDbXrecord
280
     1
102
RTVSPost2010Prop28
280
     0
102
RTVSPost2010PropOp28
 70
     1
102
RTVSPost2010Prop29
280
     1
102
RTVSPost2010PropOp29
 70
     1
102
RTVSPost2010Prop30
280
     1
102
RTVSPost2010PropOp30
 70
     1
102
RTVSPost2010Prop31
280
     0
102
RTVSPost2010PropOp31
 70
     1
102
RTVSPost2010Prop32
280
     0
102
RTVSPost2010PropOp32
 70
     1
102
RTVSPost2010Prop33
280
     0
102
RTVSPost2010PropOp33
 70
     1
102
RTVSPost2010Prop34
280
     0
102
RTVSPost2010PropOp34
 70
     1
102
RTVSPost2010Prop35
280
     0
102
RTVSPost2010PropOp35
 70
     1
102
RTVSPost2010Prop36
280
     0
102
RTVSPost2010PropOp36
 70
     1
102
RTVSPost2010Prop37
 90
       50
102
RTVSPost2010PropOp37
 70
     1
102
RTVSPost2010Prop38
140
0.0
102
RTVSPost2010PropOp38
 70
     1
102
RTVSPost2010Prop39
140
1.0
102
RTVSPost2010PropOp39
 70
     1
102
RTVSPost2010Prop40
 90
        0
102
RTVSPost2010PropOp40
 70
     1
102
RTVSPost2010Prop41ColorIndex
 90
       18
102
RTVSPost2010Prop41ColorRGB
 90
        0
102
RTVSPost2010PropOp41
 70
     1
102
RTVSPost2010Prop42
 90
       50
102
RTVSPost2010PropOp42
 70
     1
102
RTVSPost2010Prop43
 90
        3
102
RTVSPost2010PropOp43
 70
     1
102
RTVSPost2010Prop44ColorIndex
 90
        5
102
RTVSPost2010Prop44ColorRGB
 90
      255
102
RTVSPost2010PropOp44
 70
     1
102
RTVSPost2010Prop45
280
     0
102
RTVSPost2010PropOp45
 70
     1
102
RTVSPost2010Prop46
 90
       50
102
RTVSPost2010PropOp46
 70
     1
102
RTVSPost2010Prop47
 90
       50
102
RTVSPost2010PropOp47
 70
     1
102
RTVSPost2010Prop48
 90
       50
102
RTVSPost2010PropOp48
 70
     1
102
RTVSPost2010Prop49
280
     0
102
RTVSPost2010PropOp49
 70
     1
102
RTVSPost2010Prop50
 90
       50
102
RTVSPost2010PropOp50
 70
     1
102
RTVSPost2010Prop51ColorIndex
 90
      256
102
RTVSPost2010Prop51ColorRGB
 90
-16777216
102
RTVSPost2010PropOp51
 70
     0
102
RTVSPost2010Prop52
140
1.0
102
RTVSPost2010PropOp52
 70
     0
102
RTVSPost2010Prop53
 90
        2
102
RTVSPost2010PropOp53
 70
     1
102
RTVSPost2010Prop54
  1
strokes_ogs.tif
102
RTVSPost2010PropOp54
 70
     1
102
RTVSPost2010Prop55
280
     0
102
RTVSPost2010PropOp55
 70
     1
102
RTVSPost2010Prop56
140
1.0
102
RTVSPost2010PropOp56
 70
     1
102
RTVSPost2010Prop57
140
1.0
102
RTVSPost2010PropOp57
 70
     1
102
RTVSPropertyOp0
 70
     1
102
RTVSPropertyOp1
 70
     1
102
RTVSPropertyOp2
 70
     1
102
RTVSPropertyOp3
 70
     1
102
RTVSPropertyOp4
 70
     1
102
RTVSPropertyOp5
 70
     1
102
RTVSPropertyOp6
 70
     1
102
RTVSPropertyOp7
 70
     1
102
RTVSPropertyOp8
 70
     1
102
RTVSPropertyOp9
 70
     1
102
RTVSPropertyOp10
 70
     1
102
RTVSPropertyOp11
 70
     1
102
RTVSPropertyOp12
 70
     1
102
RTVSPropertyOp13
 70
     1
102
RTVSPropertyOp14
 70
     1
102
RTVSPropertyOp15
 70
     1
102
RTVSPropertyOp16
 70
     1
102
RTVSPropertyOp17
 70
     1
102
RTVSPropertyOp18
 70
     1
102
RTVSPropertyOp19
 70
     1
102
RTVSPropertyOp20
 70
     1
102
RTVSPropertyOp21
 70
     1
102
RTVSPropertyOp22
 70
     1
102
RTVSPropertyOp23
 70
     1
102
RTVSPropertyOp24
 70
     1
102
RTVSPropertyOp25
 70
     1
102
RTVSPropertyOp26
 70
     1
102
RTVSPropertyOp27
 70
     1
102
RTVSPropertyOp28
 70
     1
102
RTVSPropertyOp29
 70
     1
102
RTVSPropertyOp30
 70
     1
102
RTVSPropertyOp31
 70
     1
102
RTVSPropertyOp32
 70
     1
102
RTVSPropertyOp33
 70
     1
102
RTVSPropertyOp34
 70
     1
102
RTVSPropertyOp35
 70
     1
102
RTVSPropertyOp36
 70
     1
102
RTVSPropertyOp37
 70
     1
102
RTVSPropertyOp38
 70
     1
102
RTVSPropertyOp39
 70
     1
102
RTVSPropertyOp40
 70
     1
102
RTVSPropertyOp41
 70
     1
102
RTVSPropertyOp42
 70
     1
102
RTVSPropertyOp43
 70
     1
102
RTVSPropertyOp44
 70
     1
102
RTVSPropertyOp45
 70
     1
102
RTVSPropertyOp46
 70
     1
102
RTVSPropertyOp47
 70
     1
102
RTVSPropertyOp48
 70
     1
102
RTVSPropertyOp49
 70
     1
102
RTVSPropertyOp50
 70
     1
102
RTVSPropertyOp51
 70
     0
102
RTVSPropertyOp52
 70
     0
102
RTVSPropertyOp53
 70
     1
102
RTVSPropertyOp54
 70
     1
102
RTVSPropertyOp55
 70
     1
102
RTVSPropertyOp56
 70
     1
102
RTVSPropertyOp57
 70
     1
102
RTVSPropertyOp58
 70
     1
102
RTVSPropertyOp59
 70
     1
102
RTVSPropertyOp60
 70
     1
102
RTVSPropertyOp61
 70
     1
102
RTVSPropertyOp62
 70
     1
  0
XRECORD
  5
19A
102
{ACAD_REACTORS
330
199
102
}
330
199
100
AcDbXrecord
280
     1
102
RTVSPost2010Prop28
280
     0
102
RTVSPost2010PropOp28
 70
     1
102
RTVSPost2010Prop29
280
     1
102
RTVSPost2010PropOp29
 70
     1
102
RTVSPost2010Prop30
280
     1
102
RTVSPost2010PropOp30
 70
     1
102
RTVSPost2010Prop31
280
     0
102
RTVSPost2010PropOp31
 70
     1
102
RTVSPost2010Prop32
280
     0
102
RTVSPost2010PropOp32
 70
     1
102
RTVSPost2010Prop33
280
     0
102
RTVSPost2010PropOp33
 70
     1
102
RTVSPost2010Prop34
280
     0
102
RTVSPost2010PropOp34
 70
     1
102
RTVSPost2010Prop35
280
     0
102
RTVSPost2010PropOp35
 70
     1
102
RTVSPost2010Prop36
280
     0
102
RTVSPost2010PropOp36
 70
     1
102
RTVSPost2010Prop37
 90
       50
102
RTVSPost2010PropOp37
 70
     1
102
RTVSPost2010Prop38
140
0.0
102
RTVSPost2010PropOp38
 70
     1
102
RTVSPost2010Prop39
140
1.0
102
RTVSPost2010PropOp39
 70
     1
102
RTVSPost2010Prop40
 90
        0
102
RTVSPost2010PropOp40
 70
     1
102
RTVSPost2010Prop41ColorIndex
 90
       18
102
RTVSPost2010Prop41ColorRGB
 90
        0
102
RTVSPost2010PropOp41
 70
     1
102
RTVSPost2010Prop42
 90
       50
102
RTVSPost2010PropOp42
 70
     1
102
RTVSPost2010Prop43
 90
        3
102
RTVSPost2010PropOp43
 70
     1
102
RTVSPost2010Prop44ColorIndex
 90
        5
102
RTVSPost2010Prop44ColorRGB
 90
      255
102
RTVSPost2010PropOp44
 70
     1
102
RTVSPost2010Prop45
280
     0
102
RTVSPost2010PropOp45
 70
     1
102
RTVSPost2010Prop46
 90
       50
102
RTVSPost2010PropOp46
 70
     1
102
RTVSPost2010Prop47
 90
       50
102
RTVSPost2010PropOp47
 70
     1
102
RTVSPost2010Prop48
 90
       50
102
RTVSPost2010PropOp48
 70
     1
102
RTVSPost2010Prop49
280
     0
102
RTVSPost2010PropOp49
 70
     1
102
RTVSPost2010Prop50
 90
       50
102
RTVSPost2010PropOp50
 70
     1
102
RTVSPost2010Prop51ColorIndex
 90
      256
102
RTVSPost2010Prop51ColorRGB
 90
-16777216
102
RTVSPost2010PropOp51
 70
     0
102
RTVSPost2010Prop52
140
1.0
102
RTVSPost2010PropOp52
 70
     0
102
RTVSPost2010Prop53
 90
        2
102
RTVSPost2010PropOp53
 70
     1
102
RTVSPost2010Prop54
  1
strokes_ogs.tif
102
RTVSPost2010PropOp54
 70
     1
102
RTVSPost2010Prop55
280
     0
102
RTVSPost2010PropOp55
 70
     1
102
RTVSPost2010Prop56
140
1.0
102
RTVSPost2010PropOp56
 70
     1
102
RTVSPost2010Prop57
140
1.0
102
RTVSPost2010PropOp57
 70
     1
102
RTVSPropertyOp0
 70
     1
102
RTVSPropertyOp1
 70
     1
102
RTVSPropertyOp2
 70
     1
102
RTVSPropertyOp3
 70
     1
102
RTVSPropertyOp4
 70
     1
102
RTVSPropertyOp5
 70
     1
102
RTVSPropertyOp6
 70
     1
102
RTVSPropertyOp7
 70
     1
102
RTVSPropertyOp8
 70
     1
102
RTVSPropertyOp9
 70
     1
102
RTVSPropertyOp10
 70
     1
102
RTVSPropertyOp11
 70
     1
102
RTVSPropertyOp12
 70
     1
102
RTVSPropertyOp13
 70
     1
102
RTVSPropertyOp14
 70
     1
102
RTVSPropertyOp15
 70
     1
102
RTVSPropertyOp16
 70
     1
102
RTVSPropertyOp17
 70
     1
102
RTVSPropertyOp18
 70
     1
102
RTVSPropertyOp19
 70
     1
102
RTVSPropertyOp20
 70
     1
102
RTVSPropertyOp21
 70
     1
102
RTVSPropertyOp22
 70
     1
102
RTVSPropertyOp23
 70
     1
102
RTVSPropertyOp24
 70
     1
102
RTVSPropertyOp25
 70
     1
102
RTVSPropertyOp26
 70
     1
102
RTVSPropertyOp27
 70
     1
102
RTVSPropertyOp28
 70
     1
102
RTVSPropertyOp29
 70
     1
102
RTVSPropertyOp30
 70
     1
102
RTVSPropertyOp31
 70
     1
102
RTVSPropertyOp32
 70
     1
102
RTVSPropertyOp33
 70
     1
102
RTVSPropertyOp34
 70
     1
102
RTVSPropertyOp35
 70
     1
102
RTVSPropertyOp36
 70
     1
102
RTVSPropertyOp37
 70
     1
102
RTVSPropertyOp38
 70
     1
102
RTVSPropertyOp39
 70
     1
102
RTVSPropertyOp40
 70
     1
102
RTVSPropertyOp41
 70
     1
102
RTVSPropertyOp42
 70
     1
102
RTVSPropertyOp43
 70
     1
102
RTVSPropertyOp44
 70
     1
102
RTVSPropertyOp45
 70
     1
102
RTVSPropertyOp46
 70
     1
102
RTVSPropertyOp47
 70
     1
102
RTVSPropertyOp48
 70
     1
102
RTVSPropertyOp49
 70
     1
102
RTVSPropertyOp50
 70
     1
102
RTVSPropertyOp51
 70
     0
102
RTVSPropertyOp52
 70
     0
102
RTVSPropertyOp53
 70
     1
102
RTVSPropertyOp54
 70
     1
102
RTVSPropertyOp55
 70
     1
102
RTVSPropertyOp56
 70
     1
102
RTVSPropertyOp57
 70
     1
102
RTVSPropertyOp58
 70
     1
102
RTVSPropertyOp59
 70
     1
102
RTVSPropertyOp60
 70
     1
102
RTVSPropertyOp61
 70
     1
102
RTVSPropertyOp62
 70
     1
  0
XRECORD
  5
19C
102
{ACAD_REACTORS
330
19B
102
}
330
19B
100
AcDbXrecord
280
     1
102
RTVSPost2010Prop28
280
     0
102
RTVSPost2010PropOp28
 70
     1
102
RTVSPost2010Prop29
280
     1
102
RTVSPost2010PropOp29
 70
     1
102
RTVSPost2010Prop30
280
     1
102
RTVSPost2010PropOp30
 70
     1
102
RTVSPost2010Prop31
280
     0
102
RTVSPost2010PropOp31
 70
     1
102
RTVSPost2010Prop32
280
     0
102
RTVSPost2010PropOp32
 70
     1
102
RTVSPost2010Prop33
280
     0
102
RTVSPost2010PropOp33
 70
     1
102
RTVSPost2010Prop34
280
     0
102
RTVSPost2010PropOp34
 70
     1
102
RTVSPost2010Prop35
280
     0
102
RTVSPost2010PropOp35
 70
     1
102
RTVSPost2010Prop36
280
     0
102
RTVSPost2010PropOp36
 70
     1
102
RTVSPost2010Prop37
 90
       50
102
RTVSPost2010PropOp37
 70
     1
102
RTVSPost2010Prop38
140
0.0
102
RTVSPost2010PropOp38
 70
     1
102
RTVSPost2010Prop39
140
1.0
102
RTVSPost2010PropOp39
 70
     1
102
RTVSPost2010Prop40
 90
        0
102
RTVSPost2010PropOp40
 70
     1
102
RTVSPost2010Prop41ColorIndex
 90
       18
102
RTVSPost2010Prop41ColorRGB
 90
        0
102
RTVSPost2010PropOp41
 70
     1
102
RTVSPost2010Prop42
 90
       50
102
RTVSPost2010PropOp42
 70
     1
102
RTVSPost2010Prop43
 90
        3
102
RTVSPost2010PropOp43
 70
     1
102
RTVSPost2010Prop44ColorIndex
 90
        5
102
RTVSPost2010Prop44ColorRGB
 90
      255
102
RTVSPost2010PropOp44
 70
     1
102
RTVSPost2010Prop45
280
     0
102
RTVSPost2010PropOp45
 70
     1
102
RTVSPost2010Prop46
 90
       50
102
RTVSPost2010PropOp46
 70
     1
102
RTVSPost2010Prop47
 90
       50
102
RTVSPost2010PropOp47
 70
     1
102
RTVSPost2010Prop48
 90
       50
102
RTVSPost2010PropOp48
 70
     1
102
RTVSPost2010Prop49
280
     0
102
RTVSPost2010PropOp49
 70
     1
102
RTVSPost2010Prop50
 90
       50
102
RTVSPost2010PropOp50
 70
     1
102
RTVSPost2010Prop51ColorIndex
 90
      256
102
RTVSPost2010Prop51ColorRGB
 90
-16777216
102
RTVSPost2010PropOp51
 70
     0
102
RTVSPost2010Prop52
140
1.0
102
RTVSPost2010PropOp52
 70
     0
102
RTVSPost2010Prop53
 90
        2
102
RTVSPost2010PropOp53
 70
     1
102
RTVSPost2010Prop54
  1
strokes_ogs.tif
102
RTVSPost2010PropOp54
 70
     1
102
RTVSPost2010Prop55
280
     0
102
RTVSPost2010PropOp55
 70
     1
102
RTVSPost2010Prop56
140
1.0
102
RTVSPost2010PropOp56
 70
     1
102
RTVSPost2010Prop57
140
1.0
102
RTVSPost2010PropOp57
 70
     1
102
RTVSPropertyOp0
 70
     1
102
RTVSPropertyOp1
 70
     1
102
RTVSPropertyOp2
 70
     1
102
RTVSPropertyOp3
 70
     1
102
RTVSPropertyOp4
 70
     1
102
RTVSPropertyOp5
 70
     1
102
RTVSPropertyOp6
 70
     1
102
RTVSPropertyOp7
 70
     1
102
RTVSPropertyOp8
 70
     1
102
RTVSPropertyOp9
 70
     1
102
RTVSPropertyOp10
 70
     1
102
RTVSPropertyOp11
 70
     1
102
RTVSPropertyOp12
 70
     1
102
RTVSPropertyOp13
 70
     1
102
RTVSPropertyOp14
 70
     1
102
RTVSPropertyOp15
 70
     1
102
RTVSPropertyOp16
 70
     1
102
RTVSPropertyOp17
 70
     1
102
RTVSPropertyOp18
 70
     1
102
RTVSPropertyOp19
 70
     1
102
RTVSPropertyOp20
 70
     1
102
RTVSPropertyOp21
 70
     1
102
RTVSPropertyOp22
 70
     1
102
RTVSPropertyOp23
 70
     1
102
RTVSPropertyOp24
 70
     1
102
RTVSPropertyOp25
 70
     1
102
RTVSPropertyOp26
 70
     1
102
RTVSPropertyOp27
 70
     1
102
RTVSPropertyOp28
 70
     1
102
RTVSPropertyOp29
 70
     1
102
RTVSPropertyOp30
 70
     1
102
RTVSPropertyOp31
 70
     1
102
RTVSPropertyOp32
 70
     1
102
RTVSPropertyOp33
 70
     1
102
RTVSPropertyOp34
 70
     1
102
RTVSPropertyOp35
 70
     1
102
RTVSPropertyOp36
 70
     1
102
RTVSPropertyOp37
 70
     1
102
RTVSPropertyOp38
 70
     1
102
RTVSPropertyOp39
 70
     1
102
RTVSPropertyOp40
 70
     1
102
RTVSPropertyOp41
 70
     1
102
RTVSPropertyOp42
 70
     1
102
RTVSPropertyOp43
 70
     1
102
RTVSPropertyOp44
 70
     1
102
RTVSPropertyOp45
 70
     1
102
RTVSPropertyOp46
 70
     1
102
RTVSPropertyOp47
 70
     1
102
RTVSPropertyOp48
 70
     1
102
RTVSPropertyOp49
 70
     1
102
RTVSPropertyOp50
 70
     1
102
RTVSPropertyOp51
 70
     0
102
RTVSPropertyOp52
 70
     0
102
RTVSPropertyOp53
 70
     1
102
RTVSPropertyOp54
 70
     1
102
RTVSPropertyOp55
 70
     1
102
RTVSPropertyOp56
 70
     1
102
RTVSPropertyOp57
 70
     1
102
RTVSPropertyOp58
 70
     1
102
RTVSPropertyOp59
 70
     1
102
RTVSPropertyOp60
 70
     1
102
RTVSPropertyOp61
 70
     1
102
RTVSPropertyOp62
 70
     1
  0
XRECORD
  5
19E
102
{ACAD_REACTORS
330
19D
102
}
330
19D
100
AcDbXrecord
280
     1
102
RTVSPost2010Prop28
280
     0
102
RTVSPost2010PropOp28
 70
     1
102
RTVSPost2010Prop29
280
     1
102
RTVSPost2010PropOp29
 70
     1
102
RTVSPost2010Prop30
280
     1
102
RTVSPost2010PropOp30
 70
     1
102
RTVSPost2010Prop31
280
     0
102
RTVSPost2010PropOp31
 70
     1
102
RTVSPost2010Prop32
280
     0
102
RTVSPost2010PropOp32
 70
     1
102
RTVSPost2010Prop33
280
     0
102
RTVSPost2010PropOp33
 70
     1
102
RTVSPost2010Prop34
280
     0
102
RTVSPost2010PropOp34
 70
     1
102
RTVSPost2010Prop35
280
     0
102
RTVSPost2010PropOp35
 70
     1
102
RTVSPost2010Prop36
280
     0
102
RTVSPost2010PropOp36
 70
     1
102
RTVSPost2010Prop37
 90
       50
102
RTVSPost2010PropOp37
 70
     1
102
RTVSPost2010Prop38
140
0.0
102
RTVSPost2010PropOp38
 70
     1
102
RTVSPost2010Prop39
140
1.0
102
RTVSPost2010PropOp39
 70
     1
102
RTVSPost2010Prop40
 90
        0
102
RTVSPost2010PropOp40
 70
     1
102
RTVSPost2010Prop41ColorIndex
 90
       18
102
RTVSPost2010Prop41ColorRGB
 90
        0
102
RTVSPost2010PropOp41
 70
     1
102
RTVSPost2010Prop42
 90
       50
102
RTVSPost2010PropOp42
 70
     1
102
RTVSPost2010Prop43
 90
        3
102
RTVSPost2010PropOp43
 70
     1
102
RTVSPost2010Prop44ColorIndex
 90
        5
102
RTVSPost2010Prop44ColorRGB
 90
      255
102
RTVSPost2010PropOp44
 70
     1
102
RTVSPost2010Prop45
280
     0
102
RTVSPost2010PropOp45
 70
     1
102
RTVSPost2010Prop46
 90
       50
102
RTVSPost2010PropOp46
 70
     1
102
RTVSPost2010Prop47
 90
       50
102
RTVSPost2010PropOp47
 70
     1
102
RTVSPost2010Prop48
 90
       50
102
RTVSPost2010PropOp48
 70
     1
102
RTVSPost2010Prop49
280
     0
102
RTVSPost2010PropOp49
 70
     1
102
RTVSPost2010Prop50
 90
       50
102
RTVSPost2010PropOp50
 70
     1
102
RTVSPost2010Prop51ColorIndex
 90
      256
102
RTVSPost2010Prop51ColorRGB
 90
-16777216
102
RTVSPost2010PropOp51
 70
     0
102
RTVSPost2010Prop52
140
1.0
102
RTVSPost2010PropOp52
 70
     0
102
RTVSPost2010Prop53
 90
        2
102
RTVSPost2010PropOp53
 70
     1
102
RTVSPost2010Prop54
  1
strokes_ogs.tif
102
RTVSPost2010PropOp54
 70
     1
102
RTVSPost2010Prop55
280
     0
102
RTVSPost2010PropOp55
 70
     1
102
RTVSPost2010Prop56
140
1.0
102
RTVSPost2010PropOp56
 70
     1
102
RTVSPost2010Prop57
140
1.0
102
RTVSPost2010PropOp57
 70
     1
102
RTVSPropertyOp0
 70
     1
102
RTVSPropertyOp1
 70
     1
102
RTVSPropertyOp2
 70
     1
102
RTVSPropertyOp3
 70
     1
102
RTVSPropertyOp4
 70
     1
102
RTVSPropertyOp5
 70
     1
102
RTVSPropertyOp6
 70
     1
102
RTVSPropertyOp7
 70
     1
102
RTVSPropertyOp8
 70
     1
102
RTVSPropertyOp9
 70
     1
102
RTVSPropertyOp10
 70
     1
102
RTVSPropertyOp11
 70
     1
102
RTVSPropertyOp12
 70
     1
102
RTVSPropertyOp13
 70
     1
102
RTVSPropertyOp14
 70
     1
102
RTVSPropertyOp15
 70
     1
102
RTVSPropertyOp16
 70
     1
102
RTVSPropertyOp17
 70
     1
102
RTVSPropertyOp18
 70
     1
102
RTVSPropertyOp19
 70
     1
102
RTVSPropertyOp20
 70
     1
102
RTVSPropertyOp21
 70
     1
102
RTVSPropertyOp22
 70
     1
102
RTVSPropertyOp23
 70
     1
102
RTVSPropertyOp24
 70
     1
102
RTVSPropertyOp25
 70
     1
102
RTVSPropertyOp26
 70
     1
102
RTVSPropertyOp27
 70
     1
102
RTVSPropertyOp28
 70
     1
102
RTVSPropertyOp29
 70
     1
102
RTVSPropertyOp30
 70
     1
102
RTVSPropertyOp31
 70
     1
102
RTVSPropertyOp32
 70
     1
102
RTVSPropertyOp33
 70
     1
102
RTVSPropertyOp34
 70
     1
102
RTVSPropertyOp35
 70
     1
102
RTVSPropertyOp36
 70
     1
102
RTVSPropertyOp37
 70
     1
102
RTVSPropertyOp38
 70
     1
102
RTVSPropertyOp39
 70
     1
102
RTVSPropertyOp40
 70
     1
102
RTVSPropertyOp41
 70
     1
102
RTVSPropertyOp42
 70
     1
102
RTVSPropertyOp43
 70
     1
102
RTVSPropertyOp44
 70
     1
102
RTVSPropertyOp45
 70
     1
102
RTVSPropertyOp46
 70
     1
102
RTVSPropertyOp47
 70
     1
102
RTVSPropertyOp48
 70
     1
102
RTVSPropertyOp49
 70
     1
102
RTVSPropertyOp50
 70
     1
102
RTVSPropertyOp51
 70
     0
102
RTVSPropertyOp52
 70
     0
102
RTVSPropertyOp53
 70
     1
102
RTVSPropertyOp54
 70
     1
102
RTVSPropertyOp55
 70
     1
102
RTVSPropertyOp56
 70
     1
102
RTVSPropertyOp57
 70
     1
102
RTVSPropertyOp58
 70
     1
102
RTVSPropertyOp59
 70
     1
102
RTVSPropertyOp60
 70
     1
102
RTVSPropertyOp61
 70
     1
102
RTVSPropertyOp62
 70
     1
  0
XRECORD
  5
1A6
102
{ACAD_REACTORS
330
1A5
102
}
330
1A5
100
AcDbXrecord
280
     1
102
RTVSPost2010Prop28
280
     0
102
RTVSPost2010PropOp28
 70
     1
102
RTVSPost2010Prop29
280
     1
102
RTVSPost2010PropOp29
 70
     1
102
RTVSPost2010Prop30
280
     1
102
RTVSPost2010PropOp30
 70
     1
102
RTVSPost2010Prop31
280
     0
102
RTVSPost2010PropOp31
 70
     1
102
RTVSPost2010Prop32
280
     0
102
RTVSPost2010PropOp32
 70
     1
102
RTVSPost2010Prop33
280
     0
102
RTVSPost2010PropOp33
 70
     1
102
RTVSPost2010Prop34
280
     0
102
RTVSPost2010PropOp34
 70
     1
102
RTVSPost2010Prop35
280
     0
102
RTVSPost2010PropOp35
 70
     1
102
RTVSPost2010Prop36
280
     0
102
RTVSPost2010PropOp36
 70
     1
102
RTVSPost2010Prop37
 90
       50
102
RTVSPost2010PropOp37
 70
     1
102
RTVSPost2010Prop38
140
0.0
102
RTVSPost2010PropOp38
 70
     1
102
RTVSPost2010Prop39
140
1.0
102
RTVSPost2010PropOp39
 70
     1
102
RTVSPost2010Prop40
 90
        0
102
RTVSPost2010PropOp40
 70
     1
102
RTVSPost2010Prop41ColorIndex
 90
       18
102
RTVSPost2010Prop41ColorRGB
 90
        0
102
RTVSPost2010PropOp41
 70
     1
102
RTVSPost2010Prop42
 90
       50
102
RTVSPost2010PropOp42
 70
     1
102
RTVSPost2010Prop43
 90
        3
102
RTVSPost2010PropOp43
 70
     1
102
RTVSPost2010Prop44ColorIndex
 90
        5
102
RTVSPost2010Prop44ColorRGB
 90
      255
102
RTVSPost2010PropOp44
 70
     1
102
RTVSPost2010Prop45
280
     0
102
RTVSPost2010PropOp45
 70
     1
102
RTVSPost2010Prop46
 90
       50
102
RTVSPost2010PropOp46
 70
     1
102
RTVSPost2010Prop47
 90
       50
102
RTVSPost2010PropOp47
 70
     1
102
RTVSPost2010Prop48
 90
       50
102
RTVSPost2010PropOp48
 70
     1
102
RTVSPost2010Prop49
280
     0
102
RTVSPost2010PropOp49
 70
     1
102
RTVSPost2010Prop50
 90
       50
102
RTVSPost2010PropOp50
 70
     1
102
RTVSPost2010Prop51ColorIndex
 90
      256
102
RTVSPost2010Prop51ColorRGB
 90
-16777216
102
RTVSPost2010PropOp51
 70
     0
102
RTVSPost2010Prop52
140
1.0
102
RTVSPost2010PropOp52
 70
     0
102
RTVSPost2010Prop53
 90
        2
102
RTVSPost2010PropOp53
 70
     1
102
RTVSPost2010Prop54
  1
strokes_ogs.tif
102
RTVSPost2010PropOp54
 70
     1
102
RTVSPost2010Prop55
280
     0
102
RTVSPost2010PropOp55
 70
     1
102
RTVSPost2010Prop56
140
1.0
102
RTVSPost2010PropOp56
 70
     1
102
RTVSPost2010Prop57
140
1.0
102
RTVSPost2010PropOp57
 70
     1
102
RTVSPropertyOp0
 70
     1
102
RTVSPropertyOp1
 70
     1
102
RTVSPropertyOp2
 70
     1
102
RTVSPropertyOp3
 70
     1
102
RTVSPropertyOp4
 70
     1
102
RTVSPropertyOp5
 70
     1
102
RTVSPropertyOp6
 70
     1
102
RTVSPropertyOp7
 70
     1
102
RTVSPropertyOp8
 70
     1
102
RTVSPropertyOp9
 70
     1
102
RTVSPropertyOp10
 70
     1
102
RTVSPropertyOp11
 70
     1
102
RTVSPropertyOp12
 70
     1
102
RTVSPropertyOp13
 70
     1
102
RTVSPropertyOp14
 70
     1
102
RTVSPropertyOp15
 70
     1
102
RTVSPropertyOp16
 70
     1
102
RTVSPropertyOp17
 70
     1
102
RTVSPropertyOp18
 70
     1
102
RTVSPropertyOp19
 70
     1
102
RTVSPropertyOp20
 70
     1
102
RTVSPropertyOp21
 70
     1
102
RTVSPropertyOp22
 70
     1
102
RTVSPropertyOp23
 70
     1
102
RTVSPropertyOp24
 70
     1
102
RTVSPropertyOp25
 70
     1
102
RTVSPropertyOp26
 70
     1
102
RTVSPropertyOp27
 70
     1
102
RTVSPropertyOp28
 70
     1
102
RTVSPropertyOp29
 70
     1
102
RTVSPropertyOp30
 70
     1
102
RTVSPropertyOp31
 70
     1
102
RTVSPropertyOp32
 70
     1
102
RTVSPropertyOp33
 70
     1
102
RTVSPropertyOp34
 70
     1
102
RTVSPropertyOp35
 70
     1
102
RTVSPropertyOp36
 70
     1
102
RTVSPropertyOp37
 70
     1
102
RTVSPropertyOp38
 70
     1
102
RTVSPropertyOp39
 70
     1
102
RTVSPropertyOp40
 70
     1
102
RTVSPropertyOp41
 70
     1
102
RTVSPropertyOp42
 70
     1
102
RTVSPropertyOp43
 70
     1
102
RTVSPropertyOp44
 70
     1
102
RTVSPropertyOp45
 70
     1
102
RTVSPropertyOp46
 70
     1
102
RTVSPropertyOp47
 70
     1
102
RTVSPropertyOp48
 70
     1
102
RTVSPropertyOp49
 70
     1
102
RTVSPropertyOp50
 70
     1
102
RTVSPropertyOp51
 70
     0
102
RTVSPropertyOp52
 70
     0
102
RTVSPropertyOp53
 70
     1
102
RTVSPropertyOp54
 70
     1
102
RTVSPropertyOp55
 70
     1
102
RTVSPropertyOp56
 70
     1
102
RTVSPropertyOp57
 70
     1
102
RTVSPropertyOp58
 70
     1
102
RTVSPropertyOp59
 70
     1
102
RTVSPropertyOp60
 70
     1
102
RTVSPropertyOp61
 70
     1
102
RTVSPropertyOp62
 70
     1
  0
XRECORD
  5
1C2
102
{ACAD_REACTORS
330
1C1
102
}
330
1C1
100
AcDbXrecord
280
     1
102
RTVSPost2010Prop28
280
     0
102
RTVSPost2010PropOp28
 70
     0
102
RTVSPost2010Prop29
280
     1
102
RTVSPost2010PropOp29
 70
     0
102
RTVSPost2010Prop30
280
     1
102
RTVSPost2010PropOp30
 70
     0
102
RTVSPost2010Prop31
280
     0
102
RTVSPost2010PropOp31
 70
     0
102
RTVSPost2010Prop32
280
     0
102
RTVSPost2010PropOp32
 70
     0
102
RTVSPost2010Prop33
280
     0
102
RTVSPost2010PropOp33
 70
     0
102
RTVSPost2010Prop34
280
     0
102
RTVSPost2010PropOp34
 70
     0
102
RTVSPost2010Prop35
280
     0
102
RTVSPost2010PropOp35
 70
     0
102
RTVSPost2010Prop36
280
     0
102
RTVSPost2010PropOp36
 70
     0
102
RTVSPost2010Prop37
 90
       50
102
RTVSPost2010PropOp37
 70
     0
102
RTVSPost2010Prop38
140
0.0
102
RTVSPost2010PropOp38
 70
     0
102
RTVSPost2010Prop39
140
1.0
102
RTVSPost2010PropOp39
 70
     0
102
RTVSPost2010Prop40
 90
        0
102
RTVSPost2010PropOp40
 70
     0
102
RTVSPost2010Prop41ColorIndex
 90
       18
102
RTVSPost2010Prop41ColorRGB
 90
        0
102
RTVSPost2010PropOp41
 70
     0
102
RTVSPost2010Prop42
 90
       50
102
RTVSPost2010PropOp42
 70
     0
102
RTVSPost2010Prop43
 90
        3
102
RTVSPost2010PropOp43
 70
     0
102
RTVSPost2010Prop44ColorIndex
 90
        5
102
RTVSPost2010Prop44ColorRGB
 90
      255
102
RTVSPost2010PropOp44
 70
     0
102
RTVSPost2010Prop45
280
     0
102
RTVSPost2010PropOp45
 70
     0
102
RTVSPost2010Prop46
 90
       50
102
RTVSPost2010PropOp46
 70
     0
102
RTVSPost2010Prop47
 90
       50
102
RTVSPost2010PropOp47
 70
     0
102
RTVSPost2010Prop48
 90
       50
102
RTVSPost2010PropOp48
 70
     0
102
RTVSPost2010Prop49
280
     0
102
RTVSPost2010PropOp49
 70
     0
102
RTVSPost2010Prop50
 90
       50
102
RTVSPost2010PropOp50
 70
     0
102
RTVSPost2010Prop51ColorIndex
 90
      256
102
RTVSPost2010Prop51ColorRGB
 90
-16777216
102
RTVSPost2010PropOp51
 70
     0
102
RTVSPost2010Prop52
140
1.0
102
RTVSPost2010PropOp52
 70
     0
102
RTVSPost2010Prop53
 90
        2
102
RTVSPost2010PropOp53
 70
     0
102
RTVSPost2010Prop54
  1
strokes_ogs.tif
102
RTVSPost2010PropOp54
 70
     0
102
RTVSPost2010Prop55
280
     0
102
RTVSPost2010PropOp55
 70
     0
102
RTVSPost2010Prop56
140
1.0
102
RTVSPost2010PropOp56
 70
     0
102
RTVSPost2010Prop57
140
1.0
102
RTVSPost2010PropOp57
 70
     0
102
RTVSPropertyOp0
 70
     0
102
RTVSPropertyOp1
 70
     0
102
RTVSPropertyOp2
 70
     0
102
RTVSPropertyOp3
 70
     0
102
RTVSPropertyOp4
 70
     0
102
RTVSPropertyOp5
 70
     0
102
RTVSPropertyOp6
 70
     0
102
RTVSPropertyOp7
 70
     0
102
RTVSPropertyOp8
 70
     0
102
RTVSPropertyOp9
 70
     0
102
RTVSPropertyOp10
 70
     0
102
RTVSPropertyOp11
 70
     0
102
RTVSPropertyOp12
 70
     0
102
RTVSPropertyOp13
 70
     0
102
RTVSPropertyOp14
 70
     2
102
RTVSPropertyOp15
 70
     0
102
RTVSPropertyOp16
 70
     0
102
RTVSPropertyOp17
 70
     0
102
RTVSPropertyOp18
 70
     0
102
RTVSPropertyOp19
 70
     0
102
RTVSPropertyOp20
 70
     0
102
RTVSPropertyOp21
 70
     0
102
RTVSPropertyOp22
 70
     0
102
RTVSPropertyOp23
 70
     0
102
RTVSPropertyOp24
 70
     0
102
RTVSPropertyOp25
 70
     0
102
RTVSPropertyOp26
 70
     0
102
RTVSPropertyOp27
 70
     0
102
RTVSPropertyOp28
 70
     0
102
RTVSPropertyOp29
 70
     0
102
RTVSPropertyOp30
 70
     0
102
RTVSPropertyOp31
 70
     0
102
RTVSPropertyOp32
 70
     0
102
RTVSPropertyOp33
 70
     0
102
RTVSPropertyOp34
 70
     0
102
RTVSPropertyOp35
 70
     0
102
RTVSPropertyOp36
 70
     0
102
RTVSPropertyOp37
 70
     0
102
RTVSPropertyOp38
 70
     0
102
RTVSPropertyOp39
 70
     0
102
RTVSPropertyOp40
 70
     0
102
RTVSPropertyOp41
 70
     0
102
RTVSPropertyOp42
 70
     0
102
RTVSPropertyOp43
 70
     0
102
RTVSPropertyOp44
 70
     0
102
RTVSPropertyOp45
 70
     0
102
RTVSPropertyOp46
 70
     0
102
RTVSPropertyOp47
 70
     0
102
RTVSPropertyOp48
 70
     0
102
RTVSPropertyOp49
 70
     0
102
RTVSPropertyOp50
 70
     0
102
RTVSPropertyOp51
 70
     0
102
RTVSPropertyOp52
 70
     0
102
RTVSPropertyOp53
 70
     0
102
RTVSPropertyOp54
 70
     0
102
RTVSPropertyOp55
 70
     0
102
RTVSPropertyOp56
 70
     0
102
RTVSPropertyOp57
 70
     0
102
RTVSPropertyOp58
 70
     0
102
RTVSPropertyOp59
 70
     0
102
RTVSPropertyOp60
 70
     0
102
RTVSPropertyOp61
 70
     0
102
RTVSPropertyOp62
 70
     0
  0
XRECORD
  5
1B2
102
{ACAD_REACTORS
330
1B1
102
}
330
1B1
100
AcDbXrecord
280
     1
102
RTVSPost2010Prop28
280
     0
102
RTVSPost2010PropOp28
 70
     1
102
RTVSPost2010Prop29
280
     1
102
RTVSPost2010PropOp29
 70
     1
102
RTVSPost2010Prop30
280
     1
102
RTVSPost2010PropOp30
 70
     1
102
RTVSPost2010Prop31
280
     0
102
RTVSPost2010PropOp31
 70
     1
102
RTVSPost2010Prop32
280
     0
102
RTVSPost2010PropOp32
 70
     1
102
RTVSPost2010Prop33
280
     0
102
RTVSPost2010PropOp33
 70
     1
102
RTVSPost2010Prop34
280
     0
102
RTVSPost2010PropOp34
 70
     1
102
RTVSPost2010Prop35
280
     0
102
RTVSPost2010PropOp35
 70
     1
102
RTVSPost2010Prop36
280
     0
102
RTVSPost2010PropOp36
 70
     1
102
RTVSPost2010Prop37
 90
       50
102
RTVSPost2010PropOp37
 70
     1
102
RTVSPost2010Prop38
140
0.0
102
RTVSPost2010PropOp38
 70
     1
102
RTVSPost2010Prop39
140
1.0
102
RTVSPost2010PropOp39
 70
     1
102
RTVSPost2010Prop40
 90
        0
102
RTVSPost2010PropOp40
 70
     1
102
RTVSPost2010Prop41ColorIndex
 90
       18
102
RTVSPost2010Prop41ColorRGB
 90
        0
102
RTVSPost2010PropOp41
 70
     1
102
RTVSPost2010Prop42
 90
       50
102
RTVSPost2010PropOp42
 70
     1
102
RTVSPost2010Prop43
 90
        3
102
RTVSPost2010PropOp43
 70
     1
102
RTVSPost2010Prop44ColorIndex
 90
        5
102
RTVSPost2010Prop44ColorRGB
 90
      255
102
RTVSPost2010PropOp44
 70
     1
102
RTVSPost2010Prop45
280
     0
102
RTVSPost2010PropOp45
 70
     1
102
RTVSPost2010Prop46
 90
       50
102
RTVSPost2010PropOp46
 70
     1
102
RTVSPost2010Prop47
 90
       50
102
RTVSPost2010PropOp47
 70
     1
102
RTVSPost2010Prop48
 90
       50
102
RTVSPost2010PropOp48
 70
     1
102
RTVSPost2010Prop49
280
     0
102
RTVSPost2010PropOp49
 70
     1
102
RTVSPost2010Prop50
 90
       50
102
RTVSPost2010PropOp50
 70
     1
102
RTVSPost2010Prop51ColorIndex
 90
      256
102
RTVSPost2010Prop51ColorRGB
 90
-16777216
102
RTVSPost2010PropOp51
 70
     0
102
RTVSPost2010Prop52
140
1.0
102
RTVSPost2010PropOp52
 70
     0
102
RTVSPost2010Prop53
 90
        2
102
RTVSPost2010PropOp53
 70
     1
102
RTVSPost2010Prop54
  1
strokes_ogs.tif
102
RTVSPost2010PropOp54
 70
     1
102
RTVSPost2010Prop55
280
     0
102
RTVSPost2010PropOp55
 70
     1
102
RTVSPost2010Prop56
140
1.0
102
RTVSPost2010PropOp56
 70
     1
102
RTVSPost2010Prop57
140
1.0
102
RTVSPost2010PropOp57
 70
     1
102
RTVSPropertyOp0
 70
     1
102
RTVSPropertyOp1
 70
     1
102
RTVSPropertyOp2
 70
     1
102
RTVSPropertyOp3
 70
     1
102
RTVSPropertyOp4
 70
     1
102
RTVSPropertyOp5
 70
     1
102
RTVSPropertyOp6
 70
     1
102
RTVSPropertyOp7
 70
     1
102
RTVSPropertyOp8
 70
     1
102
RTVSPropertyOp9
 70
     1
102
RTVSPropertyOp10
 70
     1
102
RTVSPropertyOp11
 70
     1
102
RTVSPropertyOp12
 70
     1
102
RTVSPropertyOp13
 70
     1
102
RTVSPropertyOp14
 70
     1
102
RTVSPropertyOp15
 70
     1
102
RTVSPropertyOp16
 70
     1
102
RTVSPropertyOp17
 70
     1
102
RTVSPropertyOp18
 70
     1
102
RTVSPropertyOp19
 70
     1
102
RTVSPropertyOp20
 70
     1
102
RTVSPropertyOp21
 70
     1
102
RTVSPropertyOp22
 70
     1
102
RTVSPropertyOp23
 70
     1
102
RTVSPropertyOp24
 70
     1
102
RTVSPropertyOp25
 70
     1
102
RTVSPropertyOp26
 70
     1
102
RTVSPropertyOp27
 70
     1
102
RTVSPropertyOp28
 70
     1
102
RTVSPropertyOp29
 70
     1
102
RTVSPropertyOp30
 70
     1
102
RTVSPropertyOp31
 70
     1
102
RTVSPropertyOp32
 70
     1
102
RTVSPropertyOp33
 70
     1
102
RTVSPropertyOp34
 70
     1
102
RTVSPropertyOp35
 70
     1
102
RTVSPropertyOp36
 70
     1
102
RTVSPropertyOp37
 70
     1
102
RTVSPropertyOp38
 70
     1
102
RTVSPropertyOp39
 70
     1
102
RTVSPropertyOp40
 70
     1
102
RTVSPropertyOp41
 70
     1
102
RTVSPropertyOp42
 70
     1
102
RTVSPropertyOp43
 70
     1
102
RTVSPropertyOp44
 70
     1
102
RTVSPropertyOp45
 70
     1
102
RTVSPropertyOp46
 70
     1
102
RTVSPropertyOp47
 70
     1
102
RTVSPropertyOp48
 70
     1
102
RTVSPropertyOp49
 70
     1
102
RTVSPropertyOp50
 70
     1
102
RTVSPropertyOp51
 70
     0
102
RTVSPropertyOp52
 70
     0
102
RTVSPropertyOp53
 70
     1
102
RTVSPropertyOp54
 70
     1
102
RTVSPropertyOp55
 70
     1
102
RTVSPropertyOp56
 70
     1
102
RTVSPropertyOp57
 70
     1
102
RTVSPropertyOp58
 70
     1
102
RTVSPropertyOp59
 70
     1
102
RTVSPropertyOp60
 70
     1
102
RTVSPropertyOp61
 70
     1
102
RTVSPropertyOp62
 70
     1
  0
XRECORD
  5
1C4
102
{ACAD_REACTORS
330
1C3
102
}
330
1C3
100
AcDbXrecord
280
     1
102
RTVSPost2010Prop28
280
     0
102
RTVSPost2010PropOp28
 70
     0
102
RTVSPost2010Prop29
280
     1
102
RTVSPost2010PropOp29
 70
     0
102
RTVSPost2010Prop30
280
     1
102
RTVSPost2010PropOp30
 70
     0
102
RTVSPost2010Prop31
280
     0
102
RTVSPost2010PropOp31
 70
     0
102
RTVSPost2010Prop32
280
     0
102
RTVSPost2010PropOp32
 70
     0
102
RTVSPost2010Prop33
280
     0
102
RTVSPost2010PropOp33
 70
     0
102
RTVSPost2010Prop34
280
     0
102
RTVSPost2010PropOp34
 70
     0
102
RTVSPost2010Prop35
280
     0
102
RTVSPost2010PropOp35
 70
     0
102
RTVSPost2010Prop36
280
     0
102
RTVSPost2010PropOp36
 70
     0
102
RTVSPost2010Prop37
 90
       50
102
RTVSPost2010PropOp37
 70
     0
102
RTVSPost2010Prop38
140
0.0
102
RTVSPost2010PropOp38
 70
     0
102
RTVSPost2010Prop39
140
1.0
102
RTVSPost2010PropOp39
 70
     0
102
RTVSPost2010Prop40
 90
        0
102
RTVSPost2010PropOp40
 70
     0
102
RTVSPost2010Prop41ColorIndex
 90
       18
102
RTVSPost2010Prop41ColorRGB
 90
        0
102
RTVSPost2010PropOp41
 70
     0
102
RTVSPost2010Prop42
 90
       50
102
RTVSPost2010PropOp42
 70
     0
102
RTVSPost2010Prop43
 90
        3
102
RTVSPost2010PropOp43
 70
     0
102
RTVSPost2010Prop44ColorIndex
 90
        5
102
RTVSPost2010Prop44ColorRGB
 90
      255
102
RTVSPost2010PropOp44
 70
     0
102
RTVSPost2010Prop45
280
     0
102
RTVSPost2010PropOp45
 70
     0
102
RTVSPost2010Prop46
 90
       50
102
RTVSPost2010PropOp46
 70
     0
102
RTVSPost2010Prop47
 90
       50
102
RTVSPost2010PropOp47
 70
     0
102
RTVSPost2010Prop48
 90
       50
102
RTVSPost2010PropOp48
 70
     0
102
RTVSPost2010Prop49
280
     0
102
RTVSPost2010PropOp49
 70
     0
102
RTVSPost2010Prop50
 90
       50
102
RTVSPost2010PropOp50
 70
     0
102
RTVSPost2010Prop51ColorIndex
 90
      256
102
RTVSPost2010Prop51ColorRGB
 90
-16777216
102
RTVSPost2010PropOp51
 70
     0
102
RTVSPost2010Prop52
140
1.0
102
RTVSPost2010PropOp52
 70
     0
102
RTVSPost2010Prop53
 90
        2
102
RTVSPost2010PropOp53
 70
     0
102
RTVSPost2010Prop54
  1
strokes_ogs.tif
102
RTVSPost2010PropOp54
 70
     0
102
RTVSPost2010Prop55
280
     0
102
RTVSPost2010PropOp55
 70
     0
102
RTVSPost2010Prop56
140
1.0
102
RTVSPost2010PropOp56
 70
     0
102
RTVSPost2010Prop57
140
1.0
102
RTVSPost2010PropOp57
 70
     0
102
RTVSPropertyOp0
 70
     0
102
RTVSPropertyOp1
 70
     0
102
RTVSPropertyOp2
 70
     0
102
RTVSPropertyOp3
 70
     0
102
RTVSPropertyOp4
 70
     0
102
RTVSPropertyOp5
 70
     0
102
RTVSPropertyOp6
 70
     0
102
RTVSPropertyOp7
 70
     0
102
RTVSPropertyOp8
 70
     0
102
RTVSPropertyOp9
 70
     0
102
RTVSPropertyOp10
 70
     0
102
RTVSPropertyOp11
 70
     0
102
RTVSPropertyOp12
 70
     0
102
RTVSPropertyOp13
 70
     0
102
RTVSPropertyOp14
 70
     2
102
RTVSPropertyOp15
 70
     0
102
RTVSPropertyOp16
 70
     0
102
RTVSPropertyOp17
 70
     0
102
RTVSPropertyOp18
 70
     0
102
RTVSPropertyOp19
 70
     0
102
RTVSPropertyOp20
 70
     0
102
RTVSPropertyOp21
 70
     0
102
RTVSPropertyOp22
 70
     0
102
RTVSPropertyOp23
 70
     0
102
RTVSPropertyOp24
 70
     0
102
RTVSPropertyOp25
 70
     0
102
RTVSPropertyOp26
 70
     0
102
RTVSPropertyOp27
 70
     0
102
RTVSPropertyOp28
 70
     0
102
RTVSPropertyOp29
 70
     0
102
RTVSPropertyOp30
 70
     0
102
RTVSPropertyOp31
 70
     0
102
RTVSPropertyOp32
 70
     0
102
RTVSPropertyOp33
 70
     0
102
RTVSPropertyOp34
 70
     0
102
RTVSPropertyOp35
 70
     0
102
RTVSPropertyOp36
 70
     0
102
RTVSPropertyOp37
 70
     0
102
RTVSPropertyOp38
 70
     0
102
RTVSPropertyOp39
 70
     0
102
RTVSPropertyOp40
 70
     0
102
RTVSPropertyOp41
 70
     0
102
RTVSPropertyOp42
 70
     0
102
RTVSPropertyOp43
 70
     0
102
RTVSPropertyOp44
 70
     0
102
RTVSPropertyOp45
 70
     0
102
RTVSPropertyOp46
 70
     0
102
RTVSPropertyOp47
 70
     0
102
RTVSPropertyOp48
 70
     0
102
RTVSPropertyOp49
 70
     0
102
RTVSPropertyOp50
 70
     0
102
RTVSPropertyOp51
 70
     0
102
RTVSPropertyOp52
 70
     0
102
RTVSPropertyOp53
 70
     0
102
RTVSPropertyOp54
 70
     0
102
RTVSPropertyOp55
 70
     0
102
RTVSPropertyOp56
 70
     0
102
RTVSPropertyOp57
 70
     0
102
RTVSPropertyOp58
 70
     0
102
RTVSPropertyOp59
 70
     0
102
RTVSPropertyOp60
 70
     0
102
RTVSPropertyOp61
 70
     0
102
RTVSPropertyOp62
 70
     0
  0
XRECORD
  5
1AA
102
{ACAD_REACTORS
330
1A9
102
}
330
1A9
100
AcDbXrecord
280
     1
102
RTVSPost2010Prop28
280
     0
102
RTVSPost2010PropOp28
 70
     1
102
RTVSPost2010Prop29
280
     1
102
RTVSPost2010PropOp29
 70
     1
102
RTVSPost2010Prop30
280
     1
102
RTVSPost2010PropOp30
 70
     1
102
RTVSPost2010Prop31
280
     0
102
RTVSPost2010PropOp31
 70
     1
102
RTVSPost2010Prop32
280
     0
102
RTVSPost2010PropOp32
 70
     1
102
RTVSPost2010Prop33
280
     0
102
RTVSPost2010PropOp33
 70
     1
102
RTVSPost2010Prop34
280
     0
102
RTVSPost2010PropOp34
 70
     1
102
RTVSPost2010Prop35
280
     0
102
RTVSPost2010PropOp35
 70
     1
102
RTVSPost2010Prop36
280
     0
102
RTVSPost2010PropOp36
 70
     1
102
RTVSPost2010Prop37
 90
       50
102
RTVSPost2010PropOp37
 70
     1
102
RTVSPost2010Prop38
140
0.0
102
RTVSPost2010PropOp38
 70
     1
102
RTVSPost2010Prop39
140
1.0
102
RTVSPost2010PropOp39
 70
     1
102
RTVSPost2010Prop40
 90
        0
102
RTVSPost2010PropOp40
 70
     1
102
RTVSPost2010Prop41ColorIndex
 90
       18
102
RTVSPost2010Prop41ColorRGB
 90
        0
102
RTVSPost2010PropOp41
 70
     1
102
RTVSPost2010Prop42
 90
       50
102
RTVSPost2010PropOp42
 70
     1
102
RTVSPost2010Prop43
 90
        3
102
RTVSPost2010PropOp43
 70
     1
102
RTVSPost2010Prop44ColorIndex
 90
        5
102
RTVSPost2010Prop44ColorRGB
 90
      255
102
RTVSPost2010PropOp44
 70
     1
102
RTVSPost2010Prop45
280
     0
102
RTVSPost2010PropOp45
 70
     1
102
RTVSPost2010Prop46
 90
       50
102
RTVSPost2010PropOp46
 70
     1
102
RTVSPost2010Prop47
 90
       50
102
RTVSPost2010PropOp47
 70
     1
102
RTVSPost2010Prop48
 90
       50
102
RTVSPost2010PropOp48
 70
     1
102
RTVSPost2010Prop49
280
     0
102
RTVSPost2010PropOp49
 70
     1
102
RTVSPost2010Prop50
 90
       50
102
RTVSPost2010PropOp50
 70
     1
102
RTVSPost2010Prop51ColorIndex
 90
      256
102
RTVSPost2010Prop51ColorRGB
 90
-16777216
102
RTVSPost2010PropOp51
 70
     0
102
RTVSPost2010Prop52
140
1.0
102
RTVSPost2010PropOp52
 70
     0
102
RTVSPost2010Prop53
 90
        2
102
RTVSPost2010PropOp53
 70
     1
102
RTVSPost2010Prop54
  1
strokes_ogs.tif
102
RTVSPost2010PropOp54
 70
     1
102
RTVSPost2010Prop55
280
     0
102
RTVSPost2010PropOp55
 70
     1
102
RTVSPost2010Prop56
140
1.0
102
RTVSPost2010PropOp56
 70
     1
102
RTVSPost2010Prop57
140
1.0
102
RTVSPost2010PropOp57
 70
     1
102
RTVSPropertyOp0
 70
     1
102
RTVSPropertyOp1
 70
     1
102
RTVSPropertyOp2
 70
     1
102
RTVSPropertyOp3
 70
     1
102
RTVSPropertyOp4
 70
     1
102
RTVSPropertyOp5
 70
     1
102
RTVSPropertyOp6
 70
     1
102
RTVSPropertyOp7
 70
     1
102
RTVSPropertyOp8
 70
     1
102
RTVSPropertyOp9
 70
     1
102
RTVSPropertyOp10
 70
     1
102
RTVSPropertyOp11
 70
     1
102
RTVSPropertyOp12
 70
     1
102
RTVSPropertyOp13
 70
     1
102
RTVSPropertyOp14
 70
     1
102
RTVSPropertyOp15
 70
     1
102
RTVSPropertyOp16
 70
     1
102
RTVSPropertyOp17
 70
     1
102
RTVSPropertyOp18
 70
     1
102
RTVSPropertyOp19
 70
     1
102
RTVSPropertyOp20
 70
     1
102
RTVSPropertyOp21
 70
     1
102
RTVSPropertyOp22
 70
     1
102
RTVSPropertyOp23
 70
     1
102
RTVSPropertyOp24
 70
     1
102
RTVSPropertyOp25
 70
     1
102
RTVSPropertyOp26
 70
     1
102
RTVSPropertyOp27
 70
     1
102
RTVSPropertyOp28
 70
     1
102
RTVSPropertyOp29
 70
     1
102
RTVSPropertyOp30
 70
     1
102
RTVSPropertyOp31
 70
     1
102
RTVSPropertyOp32
 70
     1
102
RTVSPropertyOp33
 70
     1
102
RTVSPropertyOp34
 70
     1
102
RTVSPropertyOp35
 70
     1
102
RTVSPropertyOp36
 70
     1
102
RTVSPropertyOp37
 70
     1
102
RTVSPropertyOp38
 70
     1
102
RTVSPropertyOp39
 70
     1
102
RTVSPropertyOp40
 70
     1
102
RTVSPropertyOp41
 70
     1
102
RTVSPropertyOp42
 70
     1
102
RTVSPropertyOp43
 70
     1
102
RTVSPropertyOp44
 70
     1
102
RTVSPropertyOp45
 70
     1
102
RTVSPropertyOp46
 70
     1
102
RTVSPropertyOp47
 70
     1
102
RTVSPropertyOp48
 70
     1
102
RTVSPropertyOp49
 70
     1
102
RTVSPropertyOp50
 70
     1
102
RTVSPropertyOp51
 70
     0
102
RTVSPropertyOp52
 70
     0
102
RTVSPropertyOp53
 70
     1
102
RTVSPropertyOp54
 70
     1
102
RTVSPropertyOp55
 70
     1
102
RTVSPropertyOp56
 70
     1
102
RTVSPropertyOp57
 70
     1
102
RTVSPropertyOp58
 70
     1
102
RTVSPropertyOp59
 70
     1
102
RTVSPropertyOp60
 70
     1
102
RTVSPropertyOp61
 70
     1
102
RTVSPropertyOp62
 70
     1
  0
XRECORD
  5
1C0
102
{ACAD_REACTORS
330
1BF
102
}
330
1BF
100
AcDbXrecord
280
     1
102
RTVSPost2010Prop28
280
     0
102
RTVSPost2010PropOp28
 70
     1
102
RTVSPost2010Prop29
280
     1
102
RTVSPost2010PropOp29
 70
     1
102
RTVSPost2010Prop30
280
     1
102
RTVSPost2010PropOp30
 70
     1
102
RTVSPost2010Prop31
280
     0
102
RTVSPost2010PropOp31
 70
     1
102
RTVSPost2010Prop32
280
     0
102
RTVSPost2010PropOp32
 70
     1
102
RTVSPost2010Prop33
280
     0
102
RTVSPost2010PropOp33
 70
     1
102
RTVSPost2010Prop34
280
     0
102
RTVSPost2010PropOp34
 70
     1
102
RTVSPost2010Prop35
280
     0
102
RTVSPost2010PropOp35
 70
     1
102
RTVSPost2010Prop36
280
     0
102
RTVSPost2010PropOp36
 70
     1
102
RTVSPost2010Prop37
 90
       50
102
RTVSPost2010PropOp37
 70
     1
102
RTVSPost2010Prop38
140
0.0
102
RTVSPost2010PropOp38
 70
     1
102
RTVSPost2010Prop39
140
1.0
102
RTVSPost2010PropOp39
 70
     1
102
RTVSPost2010Prop40
 90
        0
102
RTVSPost2010PropOp40
 70
     1
102
RTVSPost2010Prop41ColorIndex
 90
       18
102
RTVSPost2010Prop41ColorRGB
 90
        0
102
RTVSPost2010PropOp41
 70
     1
102
RTVSPost2010Prop42
 90
       50
102
RTVSPost2010PropOp42
 70
     1
102
RTVSPost2010Prop43
 90
        3
102
RTVSPost2010PropOp43
 70
     1
102
RTVSPost2010Prop44ColorIndex
 90
        5
102
RTVSPost2010Prop44ColorRGB
 90
      255
102
RTVSPost2010PropOp44
 70
     1
102
RTVSPost2010Prop45
280
     0
102
RTVSPost2010PropOp45
 70
     1
102
RTVSPost2010Prop46
 90
       50
102
RTVSPost2010PropOp46
 70
     1
102
RTVSPost2010Prop47
 90
       50
102
RTVSPost2010PropOp47
 70
     1
102
RTVSPost2010Prop48
 90
       50
102
RTVSPost2010PropOp48
 70
     1
102
RTVSPost2010Prop49
280
     0
102
RTVSPost2010PropOp49
 70
     1
102
RTVSPost2010Prop50
 90
       50
102
RTVSPost2010PropOp50
 70
     1
102
RTVSPost2010Prop51ColorIndex
 90
      256
102
RTVSPost2010Prop51ColorRGB
 90
-16777216
102
RTVSPost2010PropOp51
 70
     0
102
RTVSPost2010Prop52
140
1.0
102
RTVSPost2010PropOp52
 70
     0
102
RTVSPost2010Prop53
 90
        2
102
RTVSPost2010PropOp53
 70
     1
102
RTVSPost2010Prop54
  1
strokes_ogs.tif
102
RTVSPost2010PropOp54
 70
     1
102
RTVSPost2010Prop55
280
     0
102
RTVSPost2010PropOp55
 70
     1
102
RTVSPost2010Prop56
140
1.0
102
RTVSPost2010PropOp56
 70
     1
102
RTVSPost2010Prop57
140
1.0
102
RTVSPost2010PropOp57
 70
     1
102
RTVSPropertyOp0
 70
     1
102
RTVSPropertyOp1
 70
     1
102
RTVSPropertyOp2
 70
     1
102
RTVSPropertyOp3
 70
     1
102
RTVSPropertyOp4
 70
     1
102
RTVSPropertyOp5
 70
     1
102
RTVSPropertyOp6
 70
     1
102
RTVSPropertyOp7
 70
     1
102
RTVSPropertyOp8
 70
     1
102
RTVSPropertyOp9
 70
     1
102
RTVSPropertyOp10
 70
     1
102
RTVSPropertyOp11
 70
     1
102
RTVSPropertyOp12
 70
     1
102
RTVSPropertyOp13
 70
     1
102
RTVSPropertyOp14
 70
     1
102
RTVSPropertyOp15
 70
     1
102
RTVSPropertyOp16
 70
     1
102
RTVSPropertyOp17
 70
     1
102
RTVSPropertyOp18
 70
     1
102
RTVSPropertyOp19
 70
     1
102
RTVSPropertyOp20
 70
     1
102
RTVSPropertyOp21
 70
     1
102
RTVSPropertyOp22
 70
     1
102
RTVSPropertyOp23
 70
     1
102
RTVSPropertyOp24
 70
     1
102
RTVSPropertyOp25
 70
     1
102
RTVSPropertyOp26
 70
     1
102
RTVSPropertyOp27
 70
     1
102
RTVSPropertyOp28
 70
     1
102
RTVSPropertyOp29
 70
     1
102
RTVSPropertyOp30
 70
     1
102
RTVSPropertyOp31
 70
     1
102
RTVSPropertyOp32
 70
     1
102
RTVSPropertyOp33
 70
     1
102
RTVSPropertyOp34
 70
     1
102
RTVSPropertyOp35
 70
     1
102
RTVSPropertyOp36
 70
     1
102
RTVSPropertyOp37
 70
     1
102
RTVSPropertyOp38
 70
     1
102
RTVSPropertyOp39
 70
     1
102
RTVSPropertyOp40
 70
     1
102
RTVSPropertyOp41
 70
     1
102
RTVSPropertyOp42
 70
     1
102
RTVSPropertyOp43
 70
     1
102
RTVSPropertyOp44
 70
     1
102
RTVSPropertyOp45
 70
     1
102
RTVSPropertyOp46
 70
     1
102
RTVSPropertyOp47
 70
     1
102
RTVSPropertyOp48
 70
     1
102
RTVSPropertyOp49
 70
     1
102
RTVSPropertyOp50
 70
     1
102
RTVSPropertyOp51
 70
     0
102
RTVSPropertyOp52
 70
     0
102
RTVSPropertyOp53
 70
     1
102
RTVSPropertyOp54
 70
     1
102
RTVSPropertyOp55
 70
     1
102
RTVSPropertyOp56
 70
     1
102
RTVSPropertyOp57
 70
     1
102
RTVSPropertyOp58
 70
     1
102
RTVSPropertyOp59
 70
     1
102
RTVSPropertyOp60
 70
     1
102
RTVSPropertyOp61
 70
     1
102
RTVSPropertyOp62
 70
     1
  0
XRECORD
  5
1BE
102
{ACAD_REACTORS
330
1BD
102
}
330
1BD
100
AcDbXrecord
280
     1
102
RTVSPost2010Prop28
280
     0
102
RTVSPost2010PropOp28
 70
     1
102
RTVSPost2010Prop29
280
     1
102
RTVSPost2010PropOp29
 70
     1
102
RTVSPost2010Prop30
280
     1
102
RTVSPost2010PropOp30
 70
     1
102
RTVSPost2010Prop31
280
     0
102
RTVSPost2010PropOp31
 70
     1
102
RTVSPost2010Prop32
280
     0
102
RTVSPost2010PropOp32
 70
     1
102
RTVSPost2010Prop33
280
     0
102
RTVSPost2010PropOp33
 70
     1
102
RTVSPost2010Prop34
280
     0
102
RTVSPost2010PropOp34
 70
     1
102
RTVSPost2010Prop35
280
     0
102
RTVSPost2010PropOp35
 70
     1
102
RTVSPost2010Prop36
280
     0
102
RTVSPost2010PropOp36
 70
     1
102
RTVSPost2010Prop37
 90
       50
102
RTVSPost2010PropOp37
 70
     1
102
RTVSPost2010Prop38
140
0.0
102
RTVSPost2010PropOp38
 70
     1
102
RTVSPost2010Prop39
140
1.0
102
RTVSPost2010PropOp39
 70
     1
102
RTVSPost2010Prop40
 90
        0
102
RTVSPost2010PropOp40
 70
     1
102
RTVSPost2010Prop41ColorIndex
 90
       18
102
RTVSPost2010Prop41ColorRGB
 90
        0
102
RTVSPost2010PropOp41
 70
     1
102
RTVSPost2010Prop42
 90
       50
102
RTVSPost2010PropOp42
 70
     1
102
RTVSPost2010Prop43
 90
        3
102
RTVSPost2010PropOp43
 70
     1
102
RTVSPost2010Prop44ColorIndex
 90
        5
102
RTVSPost2010Prop44ColorRGB
 90
      255
102
RTVSPost2010PropOp44
 70
     1
102
RTVSPost2010Prop45
280
     0
102
RTVSPost2010PropOp45
 70
     1
102
RTVSPost2010Prop46
 90
       50
102
RTVSPost2010PropOp46
 70
     1
102
RTVSPost2010Prop47
 90
       50
102
RTVSPost2010PropOp47
 70
     1
102
RTVSPost2010Prop48
 90
       50
102
RTVSPost2010PropOp48
 70
     1
102
RTVSPost2010Prop49
280
     0
102
RTVSPost2010PropOp49
 70
     1
102
RTVSPost2010Prop50
 90
       50
102
RTVSPost2010PropOp50
 70
     1
102
RTVSPost2010Prop51ColorIndex
 90
      256
102
RTVSPost2010Prop51ColorRGB
 90
-16777216
102
RTVSPost2010PropOp51
 70
     0
102
RTVSPost2010Prop52
140
1.0
102
RTVSPost2010PropOp52
 70
     0
102
RTVSPost2010Prop53
 90
        2
102
RTVSPost2010PropOp53
 70
     1
102
RTVSPost2010Prop54
  1
strokes_ogs.tif
102
RTVSPost2010PropOp54
 70
     1
102
RTVSPost2010Prop55
280
     0
102
RTVSPost2010PropOp55
 70
     1
102
RTVSPost2010Prop56
140
1.0
102
RTVSPost2010PropOp56
 70
     1
102
RTVSPost2010Prop57
140
1.0
102
RTVSPost2010PropOp57
 70
     1
102
RTVSPropertyOp0
 70
     1
102
RTVSPropertyOp1
 70
     1
102
RTVSPropertyOp2
 70
     1
102
RTVSPropertyOp3
 70
     1
102
RTVSPropertyOp4
 70
     1
102
RTVSPropertyOp5
 70
     1
102
RTVSPropertyOp6
 70
     1
102
RTVSPropertyOp7
 70
     1
102
RTVSPropertyOp8
 70
     1
102
RTVSPropertyOp9
 70
     1
102
RTVSPropertyOp10
 70
     1
102
RTVSPropertyOp11
 70
     1
102
RTVSPropertyOp12
 70
     1
102
RTVSPropertyOp13
 70
     1
102
RTVSPropertyOp14
 70
     1
102
RTVSPropertyOp15
 70
     1
102
RTVSPropertyOp16
 70
     1
102
RTVSPropertyOp17
 70
     1
102
RTVSPropertyOp18
 70
     1
102
RTVSPropertyOp19
 70
     1
102
RTVSPropertyOp20
 70
     1
102
RTVSPropertyOp21
 70
     1
102
RTVSPropertyOp22
 70
     1
102
RTVSPropertyOp23
 70
     1
102
RTVSPropertyOp24
 70
     1
102
RTVSPropertyOp25
 70
     1
102
RTVSPropertyOp26
 70
     1
102
RTVSPropertyOp27
 70
     1
102
RTVSPropertyOp28
 70
     1
102
RTVSPropertyOp29
 70
     1
102
RTVSPropertyOp30
 70
     1
102
RTVSPropertyOp31
 70
     1
102
RTVSPropertyOp32
 70
     1
102
RTVSPropertyOp33
 70
     1
102
RTVSPropertyOp34
 70
     1
102
RTVSPropertyOp35
 70
     1
102
RTVSPropertyOp36
 70
     1
102
RTVSPropertyOp37
 70
     1
102
RTVSPropertyOp38
 70
     1
102
RTVSPropertyOp39
 70
     1
102
RTVSPropertyOp40
 70
     1
102
RTVSPropertyOp41
 70
     1
102
RTVSPropertyOp42
 70
     1
102
RTVSPropertyOp43
 70
     1
102
RTVSPropertyOp44
 70
     1
102
RTVSPropertyOp45
 70
     1
102
RTVSPropertyOp46
 70
     1
102
RTVSPropertyOp47
 70
     1
102
RTVSPropertyOp48
 70
     1
102
RTVSPropertyOp49
 70
     1
102
RTVSPropertyOp50
 70
     1
102
RTVSPropertyOp51
 70
     0
102
RTVSPropertyOp52
 70
     0
102
RTVSPropertyOp53
 70
     1
102
RTVSPropertyOp54
 70
     1
102
RTVSPropertyOp55
 70
     1
102
RTVSPropertyOp56
 70
     1
102
RTVSPropertyOp57
 70
     1
102
RTVSPropertyOp58
 70
     1
102
RTVSPropertyOp59
 70
     1
102
RTVSPropertyOp60
 70
     1
102
RTVSPropertyOp61
 70
     1
102
RTVSPropertyOp62
 70
     1
  0
XRECORD
  5
1B8
102
{ACAD_REACTORS
330
1B7
102
}
330
1B7
100
AcDbXrecord
280
     1
102
RTVSPost2010Prop28
280
     0
102
RTVSPost2010PropOp28
 70
     1
102
RTVSPost2010Prop29
280
     1
102
RTVSPost2010PropOp29
 70
     1
102
RTVSPost2010Prop30
280
     1
102
RTVSPost2010PropOp30
 70
     1
102
RTVSPost2010Prop31
280
     0
102
RTVSPost2010PropOp31
 70
     1
102
RTVSPost2010Prop32
280
     0
102
RTVSPost2010PropOp32
 70
     1
102
RTVSPost2010Prop33
280
     0
102
RTVSPost2010PropOp33
 70
     1
102
RTVSPost2010Prop34
280
     0
102
RTVSPost2010PropOp34
 70
     1
102
RTVSPost2010Prop35
280
     0
102
RTVSPost2010PropOp35
 70
     1
102
RTVSPost2010Prop36
280
     0
102
RTVSPost2010PropOp36
 70
     1
102
RTVSPost2010Prop37
 90
       50
102
RTVSPost2010PropOp37
 70
     1
102
RTVSPost2010Prop38
140
0.0
102
RTVSPost2010PropOp38
 70
     1
102
RTVSPost2010Prop39
140
1.0
102
RTVSPost2010PropOp39
 70
     1
102
RTVSPost2010Prop40
 90
        0
102
RTVSPost2010PropOp40
 70
     1
102
RTVSPost2010Prop41ColorIndex
 90
       18
102
RTVSPost2010Prop41ColorRGB
 90
        0
102
RTVSPost2010PropOp41
 70
     1
102
RTVSPost2010Prop42
 90
       50
102
RTVSPost2010PropOp42
 70
     1
102
RTVSPost2010Prop43
 90
        3
102
RTVSPost2010PropOp43
 70
     1
102
RTVSPost2010Prop44ColorIndex
 90
        5
102
RTVSPost2010Prop44ColorRGB
 90
      255
102
RTVSPost2010PropOp44
 70
     1
102
RTVSPost2010Prop45
280
     0
102
RTVSPost2010PropOp45
 70
     1
102
RTVSPost2010Prop46
 90
       50
102
RTVSPost2010PropOp46
 70
     1
102
RTVSPost2010Prop47
 90
       50
102
RTVSPost2010PropOp47
 70
     1
102
RTVSPost2010Prop48
 90
       50
102
RTVSPost2010PropOp48
 70
     1
102
RTVSPost2010Prop49
280
     0
102
RTVSPost2010PropOp49
 70
     1
102
RTVSPost2010Prop50
 90
       50
102
RTVSPost2010PropOp50
 70
     1
102
RTVSPost2010Prop51ColorIndex
 90
      256
102
RTVSPost2010Prop51ColorRGB
 90
-16777216
102
RTVSPost2010PropOp51
 70
     0
102
RTVSPost2010Prop52
140
1.0
102
RTVSPost2010PropOp52
 70
     0
102
RTVSPost2010Prop53
 90
        2
102
RTVSPost2010PropOp53
 70
     1
102
RTVSPost2010Prop54
  1
strokes_ogs.tif
102
RTVSPost2010PropOp54
 70
     1
102
RTVSPost2010Prop55
280
     0
102
RTVSPost2010PropOp55
 70
     1
102
RTVSPost2010Prop56
140
1.0
102
RTVSPost2010PropOp56
 70
     1
102
RTVSPost2010Prop57
140
1.0
102
RTVSPost2010PropOp57
 70
     1
102
RTVSPropertyOp0
 70
     1
102
RTVSPropertyOp1
 70
     1
102
RTVSPropertyOp2
 70
     1
102
RTVSPropertyOp3
 70
     1
102
RTVSPropertyOp4
 70
     1
102
RTVSPropertyOp5
 70
     1
102
RTVSPropertyOp6
 70
     1
102
RTVSPropertyOp7
 70
     1
102
RTVSPropertyOp8
 70
     1
102
RTVSPropertyOp9
 70
     1
102
RTVSPropertyOp10
 70
     1
102
RTVSPropertyOp11
 70
     1
102
RTVSPropertyOp12
 70
     1
102
RTVSPropertyOp13
 70
     1
102
RTVSPropertyOp14
 70
     1
102
RTVSPropertyOp15
 70
     1
102
RTVSPropertyOp16
 70
     1
102
RTVSPropertyOp17
 70
     1
102
RTVSPropertyOp18
 70
     1
102
RTVSPropertyOp19
 70
     1
102
RTVSPropertyOp20
 70
     1
102
RTVSPropertyOp21
 70
     1
102
RTVSPropertyOp22
 70
     1
102
RTVSPropertyOp23
 70
     1
102
RTVSPropertyOp24
 70
     1
102
RTVSPropertyOp25
 70
     1
102
RTVSPropertyOp26
 70
     1
102
RTVSPropertyOp27
 70
     1
102
RTVSPropertyOp28
 70
     1
102
RTVSPropertyOp29
 70
     1
102
RTVSPropertyOp30
 70
     1
102
RTVSPropertyOp31
 70
     1
102
RTVSPropertyOp32
 70
     1
102
RTVSPropertyOp33
 70
     1
102
RTVSPropertyOp34
 70
     1
102
RTVSPropertyOp35
 70
     1
102
RTVSPropertyOp36
 70
     1
102
RTVSPropertyOp37
 70
     1
102
RTVSPropertyOp38
 70
     1
102
RTVSPropertyOp39
 70
     1
102
RTVSPropertyOp40
 70
     1
102
RTVSPropertyOp41
 70
     1
102
RTVSPropertyOp42
 70
     1
102
RTVSPropertyOp43
 70
     1
102
RTVSPropertyOp44
 70
     1
102
RTVSPropertyOp45
 70
     1
102
RTVSPropertyOp46
 70
     1
102
RTVSPropertyOp47
 70
     1
102
RTVSPropertyOp48
 70
     1
102
RTVSPropertyOp49
 70
     1
102
RTVSPropertyOp50
 70
     1
102
RTVSPropertyOp51
 70
     0
102
RTVSPropertyOp52
 70
     0
102
RTVSPropertyOp53
 70
     1
102
RTVSPropertyOp54
 70
     1
102
RTVSPropertyOp55
 70
     1
102
RTVSPropertyOp56
 70
     1
102
RTVSPropertyOp57
 70
     1
102
RTVSPropertyOp58
 70
     1
102
RTVSPropertyOp59
 70
     1
102
RTVSPropertyOp60
 70
     1
102
RTVSPropertyOp61
 70
     1
102
RTVSPropertyOp62
 70
     1
  0
XRECORD
  5
1BA
102
{ACAD_REACTORS
330
1B9
102
}
330
1B9
100
AcDbXrecord
280
     1
102
RTVSPost2010Prop28
280
     0
102
RTVSPost2010PropOp28
 70
     1
102
RTVSPost2010Prop29
280
     1
102
RTVSPost2010PropOp29
 70
     1
102
RTVSPost2010Prop30
280
     1
102
RTVSPost2010PropOp30
 70
     1
102
RTVSPost2010Prop31
280
     0
102
RTVSPost2010PropOp31
 70
     1
102
RTVSPost2010Prop32
280
     0
102
RTVSPost2010PropOp32
 70
     1
102
RTVSPost2010Prop33
280
     0
102
RTVSPost2010PropOp33
 70
     1
102
RTVSPost2010Prop34
280
     0
102
RTVSPost2010PropOp34
 70
     1
102
RTVSPost2010Prop35
280
     0
102
RTVSPost2010PropOp35
 70
     1
102
RTVSPost2010Prop36
280
     0
102
RTVSPost2010PropOp36
 70
     1
102
RTVSPost2010Prop37
 90
       50
102
RTVSPost2010PropOp37
 70
     1
102
RTVSPost2010Prop38
140
0.0
102
RTVSPost2010PropOp38
 70
     1
102
RTVSPost2010Prop39
140
1.0
102
RTVSPost2010PropOp39
 70
     1
102
RTVSPost2010Prop40
 90
        0
102
RTVSPost2010PropOp40
 70
     1
102
RTVSPost2010Prop41ColorIndex
 90
       18
102
RTVSPost2010Prop41ColorRGB
 90
        0
102
RTVSPost2010PropOp41
 70
     1
102
RTVSPost2010Prop42
 90
       50
102
RTVSPost2010PropOp42
 70
     1
102
RTVSPost2010Prop43
 90
        3
102
RTVSPost2010PropOp43
 70
     1
102
RTVSPost2010Prop44ColorIndex
 90
        5
102
RTVSPost2010Prop44ColorRGB
 90
      255
102
RTVSPost2010PropOp44
 70
     1
102
RTVSPost2010Prop45
280
     0
102
RTVSPost2010PropOp45
 70
     1
102
RTVSPost2010Prop46
 90
       50
102
RTVSPost2010PropOp46
 70
     1
102
RTVSPost2010Prop47
 90
       50
102
RTVSPost2010PropOp47
 70
     1
102
RTVSPost2010Prop48
 90
       50
102
RTVSPost2010PropOp48
 70
     1
102
RTVSPost2010Prop49
280
     0
102
RTVSPost2010PropOp49
 70
     1
102
RTVSPost2010Prop50
 90
       50
102
RTVSPost2010PropOp50
 70
     1
102
RTVSPost2010Prop51ColorIndex
 90
      256
102
RTVSPost2010Prop51ColorRGB
 90
-16777216
102
RTVSPost2010PropOp51
 70
     0
102
RTVSPost2010Prop52
140
1.0
102
RTVSPost2010PropOp52
 70
     0
102
RTVSPost2010Prop53
 90
        2
102
RTVSPost2010PropOp53
 70
     1
102
RTVSPost2010Prop54
  1
strokes_ogs.tif
102
RTVSPost2010PropOp54
 70
     1
102
RTVSPost2010Prop55
280
     0
102
RTVSPost2010PropOp55
 70
     1
102
RTVSPost2010Prop56
140
1.0
102
RTVSPost2010PropOp56
 70
     1
102
RTVSPost2010Prop57
140
1.0
102
RTVSPost2010PropOp57
 70
     1
102
RTVSPropertyOp0
 70
     1
102
RTVSPropertyOp1
 70
     1
102
RTVSPropertyOp2
 70
     1
102
RTVSPropertyOp3
 70
     1
102
RTVSPropertyOp4
 70
     1
102
RTVSPropertyOp5
 70
     1
102
RTVSPropertyOp6
 70
     1
102
RTVSPropertyOp7
 70
     1
102
RTVSPropertyOp8
 70
     1
102
RTVSPropertyOp9
 70
     1
102
RTVSPropertyOp10
 70
     1
102
RTVSPropertyOp11
 70
     1
102
RTVSPropertyOp12
 70
     1
102
RTVSPropertyOp13
 70
     1
102
RTVSPropertyOp14
 70
     1
102
RTVSPropertyOp15
 70
     1
102
RTVSPropertyOp16
 70
     1
102
RTVSPropertyOp17
 70
     1
102
RTVSPropertyOp18
 70
     1
102
RTVSPropertyOp19
 70
     1
102
RTVSPropertyOp20
 70
     1
102
RTVSPropertyOp21
 70
     1
102
RTVSPropertyOp22
 70
     1
102
RTVSPropertyOp23
 70
     1
102
RTVSPropertyOp24
 70
     1
102
RTVSPropertyOp25
 70
     1
102
RTVSPropertyOp26
 70
     1
102
RTVSPropertyOp27
 70
     1
102
RTVSPropertyOp28
 70
     1
102
RTVSPropertyOp29
 70
     1
102
RTVSPropertyOp30
 70
     1
102
RTVSPropertyOp31
 70
     1
102
RTVSPropertyOp32
 70
     1
102
RTVSPropertyOp33
 70
     1
102
RTVSPropertyOp34
 70
     1
102
RTVSPropertyOp35
 70
     1
102
RTVSPropertyOp36
 70
     1
102
RTVSPropertyOp37
 70
     1
102
RTVSPropertyOp38
 70
     1
102
RTVSPropertyOp39
 70
     1
102
RTVSPropertyOp40
 70
     1
102
RTVSPropertyOp41
 70
     1
102
RTVSPropertyOp42
 70
     1
102
RTVSPropertyOp43
 70
     1
102
RTVSPropertyOp44
 70
     1
102
RTVSPropertyOp45
 70
     1
102
RTVSPropertyOp46
 70
     1
102
RTVSPropertyOp47
 70
     1
102
RTVSPropertyOp48
 70
     1
102
RTVSPropertyOp49
 70
     1
102
RTVSPropertyOp50
 70
     1
102
RTVSPropertyOp51
 70
     0
102
RTVSPropertyOp52
 70
     0
102
RTVSPropertyOp53
 70
     1
102
RTVSPropertyOp54
 70
     1
102
RTVSPropertyOp55
 70
     1
102
RTVSPropertyOp56
 70
     1
102
RTVSPropertyOp57
 70
     1
102
RTVSPropertyOp58
 70
     1
102
RTVSPropertyOp59
 70
     1
102
RTVSPropertyOp60
 70
     1
102
RTVSPropertyOp61
 70
     1
102
RTVSPropertyOp62
 70
     1
  0
XRECORD
  5
1B0
102
{ACAD_REACTORS
330
1AF
102
}
330
1AF
100
AcDbXrecord
280
     1
102
RTVSPost2010Prop28
280
     0
102
RTVSPost2010PropOp28
 70
     1
102
RTVSPost2010Prop29
280
     1
102
RTVSPost2010PropOp29
 70
     1
102
RTVSPost2010Prop30
280
     1
102
RTVSPost2010PropOp30
 70
     1
102
RTVSPost2010Prop31
280
     0
102
RTVSPost2010PropOp31
 70
     1
102
RTVSPost2010Prop32
280
     0
102
RTVSPost2010PropOp32
 70
     1
102
RTVSPost2010Prop33
280
     0
102
RTVSPost2010PropOp33
 70
     1
102
RTVSPost2010Prop34
280
     0
102
RTVSPost2010PropOp34
 70
     1
102
RTVSPost2010Prop35
280
     0
102
RTVSPost2010PropOp35
 70
     1
102
RTVSPost2010Prop36
280
     0
102
RTVSPost2010PropOp36
 70
     1
102
RTVSPost2010Prop37
 90
       50
102
RTVSPost2010PropOp37
 70
     1
102
RTVSPost2010Prop38
140
0.0
102
RTVSPost2010PropOp38
 70
     1
102
RTVSPost2010Prop39
140
1.0
102
RTVSPost2010PropOp39
 70
     1
102
RTVSPost2010Prop40
 90
        0
102
RTVSPost2010PropOp40
 70
     1
102
RTVSPost2010Prop41ColorIndex
 90
       18
102
RTVSPost2010Prop41ColorRGB
 90
        0
102
RTVSPost2010PropOp41
 70
     1
102
RTVSPost2010Prop42
 90
       50
102
RTVSPost2010PropOp42
 70
     1
102
RTVSPost2010Prop43
 90
        3
102
RTVSPost2010PropOp43
 70
     1
102
RTVSPost2010Prop44ColorIndex
 90
        5
102
RTVSPost2010Prop44ColorRGB
 90
      255
102
RTVSPost2010PropOp44
 70
     1
102
RTVSPost2010Prop45
280
     0
102
RTVSPost2010PropOp45
 70
     1
102
RTVSPost2010Prop46
 90
       50
102
RTVSPost2010PropOp46
 70
     1
102
RTVSPost2010Prop47
 90
       50
102
RTVSPost2010PropOp47
 70
     1
102
RTVSPost2010Prop48
 90
       50
102
RTVSPost2010PropOp48
 70
     1
102
RTVSPost2010Prop49
280
     0
102
RTVSPost2010PropOp49
 70
     1
102
RTVSPost2010Prop50
 90
       50
102
RTVSPost2010PropOp50
 70
     1
102
RTVSPost2010Prop51ColorIndex
 90
      256
102
RTVSPost2010Prop51ColorRGB
 90
-16777216
102
RTVSPost2010PropOp51
 70
     0
102
RTVSPost2010Prop52
140
1.0
102
RTVSPost2010PropOp52
 70
     0
102
RTVSPost2010Prop53
 90
        2
102
RTVSPost2010PropOp53
 70
     1
102
RTVSPost2010Prop54
  1
strokes_ogs.tif
102
RTVSPost2010PropOp54
 70
     1
102
RTVSPost2010Prop55
280
     0
102
RTVSPost2010PropOp55
 70
     1
102
RTVSPost2010Prop56
140
1.0
102
RTVSPost2010PropOp56
 70
     1
102
RTVSPost2010Prop57
140
1.0
102
RTVSPost2010PropOp57
 70
     1
102
RTVSPropertyOp0
 70
     1
102
RTVSPropertyOp1
 70
     1
102
RTVSPropertyOp2
 70
     1
102
RTVSPropertyOp3
 70
     1
102
RTVSPropertyOp4
 70
     1
102
RTVSPropertyOp5
 70
     1
102
RTVSPropertyOp6
 70
     1
102
RTVSPropertyOp7
 70
     1
102
RTVSPropertyOp8
 70
     1
102
RTVSPropertyOp9
 70
     1
102
RTVSPropertyOp10
 70
     1
102
RTVSPropertyOp11
 70
     1
102
RTVSPropertyOp12
 70
     1
102
RTVSPropertyOp13
 70
     1
102
RTVSPropertyOp14
 70
     1
102
RTVSPropertyOp15
 70
     1
102
RTVSPropertyOp16
 70
     1
102
RTVSPropertyOp17
 70
     1
102
RTVSPropertyOp18
 70
     1
102
RTVSPropertyOp19
 70
     1
102
RTVSPropertyOp20
 70
     1
102
RTVSPropertyOp21
 70
     1
102
RTVSPropertyOp22
 70
     1
102
RTVSPropertyOp23
 70
     1
102
RTVSPropertyOp24
 70
     1
102
RTVSPropertyOp25
 70
     1
102
RTVSPropertyOp26
 70
     1
102
RTVSPropertyOp27
 70
     1
102
RTVSPropertyOp28
 70
     1
102
RTVSPropertyOp29
 70
     1
102
RTVSPropertyOp30
 70
     1
102
RTVSPropertyOp31
 70
     1
102
RTVSPropertyOp32
 70
     1
102
RTVSPropertyOp33
 70
     1
102
RTVSPropertyOp34
 70
     1
102
RTVSPropertyOp35
 70
     1
102
RTVSPropertyOp36
 70
     1
102
RTVSPropertyOp37
 70
     1
102
RTVSPropertyOp38
 70
     1
102
RTVSPropertyOp39
 70
     1
102
RTVSPropertyOp40
 70
     1
102
RTVSPropertyOp41
 70
     1
102
RTVSPropertyOp42
 70
     1
102
RTVSPropertyOp43
 70
     1
102
RTVSPropertyOp44
 70
     1
102
RTVSPropertyOp45
 70
     1
102
RTVSPropertyOp46
 70
     1
102
RTVSPropertyOp47
 70
     1
102
RTVSPropertyOp48
 70
     1
102
RTVSPropertyOp49
 70
     1
102
RTVSPropertyOp50
 70
     1
102
RTVSPropertyOp51
 70
     0
102
RTVSPropertyOp52
 70
     0
102
RTVSPropertyOp53
 70
     1
102
RTVSPropertyOp54
 70
     1
102
RTVSPropertyOp55
 70
     1
102
RTVSPropertyOp56
 70
     1
102
RTVSPropertyOp57
 70
     1
102
RTVSPropertyOp58
 70
     1
102
RTVSPropertyOp59
 70
     1
102
RTVSPropertyOp60
 70
     1
102
RTVSPropertyOp61
 70
     1
102
RTVSPropertyOp62
 70
     1
  0
XRECORD
  5
1A4
102
{ACAD_REACTORS
330
1A3
102
}
330
1A3
100
AcDbXrecord
280
     1
102
RTVSPost2010Prop28
280
     0
102
RTVSPost2010PropOp28
 70
     1
102
RTVSPost2010Prop29
280
     1
102
RTVSPost2010PropOp29
 70
     1
102
RTVSPost2010Prop30
280
     1
102
RTVSPost2010PropOp30
 70
     1
102
RTVSPost2010Prop31
280
     0
102
RTVSPost2010PropOp31
 70
     1
102
RTVSPost2010Prop32
280
     0
102
RTVSPost2010PropOp32
 70
     1
102
RTVSPost2010Prop33
280
     0
102
RTVSPost2010PropOp33
 70
     1
102
RTVSPost2010Prop34
280
     0
102
RTVSPost2010PropOp34
 70
     1
102
RTVSPost2010Prop35
280
     0
102
RTVSPost2010PropOp35
 70
     1
102
RTVSPost2010Prop36
280
     0
102
RTVSPost2010PropOp36
 70
     1
102
RTVSPost2010Prop37
 90
       50
102
RTVSPost2010PropOp37
 70
     1
102
RTVSPost2010Prop38
140
0.0
102
RTVSPost2010PropOp38
 70
     1
102
RTVSPost2010Prop39
140
1.0
102
RTVSPost2010PropOp39
 70
     1
102
RTVSPost2010Prop40
 90
        0
102
RTVSPost2010PropOp40
 70
     1
102
RTVSPost2010Prop41ColorIndex
 90
       18
102
RTVSPost2010Prop41ColorRGB
 90
        0
102
RTVSPost2010PropOp41
 70
     1
102
RTVSPost2010Prop42
 90
       50
102
RTVSPost2010PropOp42
 70
     1
102
RTVSPost2010Prop43
 90
        3
102
RTVSPost2010PropOp43
 70
     1
102
RTVSPost2010Prop44ColorIndex
 90
        5
102
RTVSPost2010Prop44ColorRGB
 90
      255
102
RTVSPost2010PropOp44
 70
     1
102
RTVSPost2010Prop45
280
     0
102
RTVSPost2010PropOp45
 70
     1
102
RTVSPost2010Prop46
 90
       50
102
RTVSPost2010PropOp46
 70
     1
102
RTVSPost2010Prop47
 90
       50
102
RTVSPost2010PropOp47
 70
     1
102
RTVSPost2010Prop48
 90
       50
102
RTVSPost2010PropOp48
 70
     1
102
RTVSPost2010Prop49
280
     0
102
RTVSPost2010PropOp49
 70
     1
102
RTVSPost2010Prop50
 90
       50
102
RTVSPost2010PropOp50
 70
     1
102
RTVSPost2010Prop51ColorIndex
 90
      256
102
RTVSPost2010Prop51ColorRGB
 90
-16777216
102
RTVSPost2010PropOp51
 70
     0
102
RTVSPost2010Prop52
140
1.0
102
RTVSPost2010PropOp52
 70
     0
102
RTVSPost2010Prop53
 90
        2
102
RTVSPost2010PropOp53
 70
     1
102
RTVSPost2010Prop54
  1
strokes_ogs.tif
102
RTVSPost2010PropOp54
 70
     1
102
RTVSPost2010Prop55
280
     0
102
RTVSPost2010PropOp55
 70
     1
102
RTVSPost2010Prop56
140
1.0
102
RTVSPost2010PropOp56
 70
     1
102
RTVSPost2010Prop57
140
1.0
102
RTVSPost2010PropOp57
 70
     1
102
RTVSPropertyOp0
 70
     1
102
RTVSPropertyOp1
 70
     1
102
RTVSPropertyOp2
 70
     1
102
RTVSPropertyOp3
 70
     1
102
RTVSPropertyOp4
 70
     1
102
RTVSPropertyOp5
 70
     1
102
RTVSPropertyOp6
 70
     1
102
RTVSPropertyOp7
 70
     1
102
RTVSPropertyOp8
 70
     1
102
RTVSPropertyOp9
 70
     1
102
RTVSPropertyOp10
 70
     1
102
RTVSPropertyOp11
 70
     1
102
RTVSPropertyOp12
 70
     1
102
RTVSPropertyOp13
 70
     1
102
RTVSPropertyOp14
 70
     1
102
RTVSPropertyOp15
 70
     1
102
RTVSPropertyOp16
 70
     1
102
RTVSPropertyOp17
 70
     1
102
RTVSPropertyOp18
 70
     1
102
RTVSPropertyOp19
 70
     1
102
RTVSPropertyOp20
 70
     1
102
RTVSPropertyOp21
 70
     1
102
RTVSPropertyOp22
 70
     1
102
RTVSPropertyOp23
 70
     1
102
RTVSPropertyOp24
 70
     1
102
RTVSPropertyOp25
 70
     1
102
RTVSPropertyOp26
 70
     1
102
RTVSPropertyOp27
 70
     1
102
RTVSPropertyOp28
 70
     1
102
RTVSPropertyOp29
 70
     1
102
RTVSPropertyOp30
 70
     1
102
RTVSPropertyOp31
 70
     1
102
RTVSPropertyOp32
 70
     1
102
RTVSPropertyOp33
 70
     1
102
RTVSPropertyOp34
 70
     1
102
RTVSPropertyOp35
 70
     1
102
RTVSPropertyOp36
 70
     1
102
RTVSPropertyOp37
 70
     1
102
RTVSPropertyOp38
 70
     1
102
RTVSPropertyOp39
 70
     1
102
RTVSPropertyOp40
 70
     1
102
RTVSPropertyOp41
 70
     1
102
RTVSPropertyOp42
 70
     1
102
RTVSPropertyOp43
 70
     1
102
RTVSPropertyOp44
 70
     1
102
RTVSPropertyOp45
 70
     1
102
RTVSPropertyOp46
 70
     1
102
RTVSPropertyOp47
 70
     1
102
RTVSPropertyOp48
 70
     1
102
RTVSPropertyOp49
 70
     1
102
RTVSPropertyOp50
 70
     1
102
RTVSPropertyOp51
 70
     0
102
RTVSPropertyOp52
 70
     0
102
RTVSPropertyOp53
 70
     1
102
RTVSPropertyOp54
 70
     1
102
RTVSPropertyOp55
 70
     1
102
RTVSPropertyOp56
 70
     1
102
RTVSPropertyOp57
 70
     1
102
RTVSPropertyOp58
 70
     1
102
RTVSPropertyOp59
 70
     1
102
RTVSPropertyOp60
 70
     1
102
RTVSPropertyOp61
 70
     1
102
RTVSPropertyOp62
 70
     1
  0
XRECORD
  5
1BC
102
{ACAD_REACTORS
330
1BB
102
}
330
1BB
100
AcDbXrecord
280
     1
102
RTVSPost2010Prop28
280
     0
102
RTVSPost2010PropOp28
 70
     1
102
RTVSPost2010Prop29
280
     1
102
RTVSPost2010PropOp29
 70
     1
102
RTVSPost2010Prop30
280
     1
102
RTVSPost2010PropOp30
 70
     1
102
RTVSPost2010Prop31
280
     0
102
RTVSPost2010PropOp31
 70
     1
102
RTVSPost2010Prop32
280
     0
102
RTVSPost2010PropOp32
 70
     1
102
RTVSPost2010Prop33
280
     0
102
RTVSPost2010PropOp33
 70
     1
102
RTVSPost2010Prop34
280
     0
102
RTVSPost2010PropOp34
 70
     1
102
RTVSPost2010Prop35
280
     0
102
RTVSPost2010PropOp35
 70
     1
102
RTVSPost2010Prop36
280
     0
102
RTVSPost2010PropOp36
 70
     1
102
RTVSPost2010Prop37
 90
       50
102
RTVSPost2010PropOp37
 70
     1
102
RTVSPost2010Prop38
140
0.0
102
RTVSPost2010PropOp38
 70
     1
102
RTVSPost2010Prop39
140
1.0
102
RTVSPost2010PropOp39
 70
     1
102
RTVSPost2010Prop40
 90
        0
102
RTVSPost2010PropOp40
 70
     1
102
RTVSPost2010Prop41ColorIndex
 90
       18
102
RTVSPost2010Prop41ColorRGB
 90
        0
102
RTVSPost2010PropOp41
 70
     1
102
RTVSPost2010Prop42
 90
       50
102
RTVSPost2010PropOp42
 70
     1
102
RTVSPost2010Prop43
 90
        3
102
RTVSPost2010PropOp43
 70
     1
102
RTVSPost2010Prop44ColorIndex
 90
        5
102
RTVSPost2010Prop44ColorRGB
 90
      255
102
RTVSPost2010PropOp44
 70
     1
102
RTVSPost2010Prop45
280
     0
102
RTVSPost2010PropOp45
 70
     1
102
RTVSPost2010Prop46
 90
       50
102
RTVSPost2010PropOp46
 70
     1
102
RTVSPost2010Prop47
 90
       50
102
RTVSPost2010PropOp47
 70
     1
102
RTVSPost2010Prop48
 90
       50
102
RTVSPost2010PropOp48
 70
     1
102
RTVSPost2010Prop49
280
     0
102
RTVSPost2010PropOp49
 70
     1
102
RTVSPost2010Prop50
 90
       50
102
RTVSPost2010PropOp50
 70
     1
102
RTVSPost2010Prop51ColorIndex
 90
      256
102
RTVSPost2010Prop51ColorRGB
 90
-16777216
102
RTVSPost2010PropOp51
 70
     0
102
RTVSPost2010Prop52
140
1.0
102
RTVSPost2010PropOp52
 70
     0
102
RTVSPost2010Prop53
 90
        2
102
RTVSPost2010PropOp53
 70
     1
102
RTVSPost2010Prop54
  1
strokes_ogs.tif
102
RTVSPost2010PropOp54
 70
     1
102
RTVSPost2010Prop55
280
     0
102
RTVSPost2010PropOp55
 70
     1
102
RTVSPost2010Prop56
140
1.0
102
RTVSPost2010PropOp56
 70
     1
102
RTVSPost2010Prop57
140
1.0
102
RTVSPost2010PropOp57
 70
     1
102
RTVSPropertyOp0
 70
     1
102
RTVSPropertyOp1
 70
     1
102
RTVSPropertyOp2
 70
     1
102
RTVSPropertyOp3
 70
     1
102
RTVSPropertyOp4
 70
     1
102
RTVSPropertyOp5
 70
     1
102
RTVSPropertyOp6
 70
     1
102
RTVSPropertyOp7
 70
     1
102
RTVSPropertyOp8
 70
     1
102
RTVSPropertyOp9
 70
     1
102
RTVSPropertyOp10
 70
     1
102
RTVSPropertyOp11
 70
     1
102
RTVSPropertyOp12
 70
     1
102
RTVSPropertyOp13
 70
     1
102
RTVSPropertyOp14
 70
     1
102
RTVSPropertyOp15
 70
     1
102
RTVSPropertyOp16
 70
     1
102
RTVSPropertyOp17
 70
     1
102
RTVSPropertyOp18
 70
     1
102
RTVSPropertyOp19
 70
     1
102
RTVSPropertyOp20
 70
     1
102
RTVSPropertyOp21
 70
     1
102
RTVSPropertyOp22
 70
     1
102
RTVSPropertyOp23
 70
     1
102
RTVSPropertyOp24
 70
     1
102
RTVSPropertyOp25
 70
     1
102
RTVSPropertyOp26
 70
     1
102
RTVSPropertyOp27
 70
     1
102
RTVSPropertyOp28
 70
     1
102
RTVSPropertyOp29
 70
     1
102
RTVSPropertyOp30
 70
     1
102
RTVSPropertyOp31
 70
     1
102
RTVSPropertyOp32
 70
     1
102
RTVSPropertyOp33
 70
     1
102
RTVSPropertyOp34
 70
     1
102
RTVSPropertyOp35
 70
     1
102
RTVSPropertyOp36
 70
     1
102
RTVSPropertyOp37
 70
     1
102
RTVSPropertyOp38
 70
     1
102
RTVSPropertyOp39
 70
     1
102
RTVSPropertyOp40
 70
     1
102
RTVSPropertyOp41
 70
     1
102
RTVSPropertyOp42
 70
     1
102
RTVSPropertyOp43
 70
     1
102
RTVSPropertyOp44
 70
     1
102
RTVSPropertyOp45
 70
     1
102
RTVSPropertyOp46
 70
     1
102
RTVSPropertyOp47
 70
     1
102
RTVSPropertyOp48
 70
     1
102
RTVSPropertyOp49
 70
     1
102
RTVSPropertyOp50
 70
     1
102
RTVSPropertyOp51
 70
     0
102
RTVSPropertyOp52
 70
     0
102
RTVSPropertyOp53
 70
     1
102
RTVSPropertyOp54
 70
     1
102
RTVSPropertyOp55
 70
     1
102
RTVSPropertyOp56
 70
     1
102
RTVSPropertyOp57
 70
     1
102
RTVSPropertyOp58
 70
     1
102
RTVSPropertyOp59
 70
     1
102
RTVSPropertyOp60
 70
     1
102
RTVSPropertyOp61
 70
     1
102
RTVSPropertyOp62
 70
     1
  0
ENDSEC
  0
EOF
